Oops, an error
Loading. Please wait.

Demons bass

version 2
version 2

Whole song

Interactive

4,199 views 1 this week
5 commentsread comments
1 2 3 4 5
x 4
add to favorites
×
Save as Personal and add changes to this tab that will be seen only by you. Learn more ›
×
You can save this tab as Personal to edit and correct it or add notes. All changes will be seen only by you. Learn more »
launch autoscroll
font size
0
reset
guitar tuner
edit
Autoscroll
slow
fast
+/-
esc
set tempo
stop
Author
Demons Bass Tab

this song is really fun to play, this is the first tab i put up and i hope you guys appreciate it.


Intro
G|----------------------------------------------|x8
D|----------------------------------------------|
A|-----------0-------------0--------------------|
D|-0-3-0-5-6---0-0-3-0-5-6----------------------|

Verse
G|----------------------------7-----------------|x4
D|------------------------------7---------------|
A|----------------0---------------8-5-0---------|
D|--0-000000303056-0-0000000------------3-2-----|

Pre-chorus
(I didnt count the Amount of notes, just follow the music)
G|----------------------------------------------|
D|----------------------------------------------|
A|---------------------------------11111111-----|
D|--1111111111--33333333--5555555---------------|

G|----------------------------------------------|
D|----------------------------------------------|
A|----------------------------------------------|
E
D|--33333333--111111111111111--333333333--------|

Chorus
___________________________________________________
G|----------------------------------------------|  |
D|----------------------------------------------|  |
A|--5-5-555-6-66-6666-0-0-000-1-11-1111---------|  |
D|----------------------------------------------|  |
                                                   |--x2   
G|----------------------------------------------|x2|
D|----------------------------------------------|  |
A|-----5---5-----------5---5--------------------|  |
D|-5-8---8---8-7-5-4-7---7---7-5-4--------------|  |
___________________________________________________|

Verse

Chorus

Chorus-similar thingy
___________________________________________________
G|----------------------------------------------|  |
D|----------------------------------------------|  |
A|-5555-5-56--0000-0-01-------------------------|  |
D|----------------------------------------------|  |
                                                   |--x2
G|----------------------------------------------|x2|
D|----------------------------------------------|  |
A|-----5---5-----------5---5--------------------|  |
D|-5-8---8---8-7-5-4-7---7---7-5-4--------------|  |
___________________________________________________|

Bridge 1
G|-----------------------------------------------------|x2
D|-----------------------------------------------------|
A|-----------------------------------------------------|
D|--00000-00000-44444-44444-55555-55555-88888-88888----|

G|-------------------------------------------------|
D|-------------------------------------------------|
A|--5-55-55-5-55-55-0-00-00-0-00-00-1-11-11-1-11-11|
D|-------------------------------------------------|

G|----------------------------------------------|
D|----------------------------------------------|
A|--3-33-33-33333333----------------------------|
D|----------------------------------------------|

G|----------------------------------------------------------------|
D|-------------------3-33-333-------------------------------------|
A|-5-55-555-3-33-333----------1-11-111-2-22-222-3-33-333-4-44-444-|
D|----------------------------------------------------------------|
(those are 10's)
G|----------------------------------------------|
D|----------------------------------------------|
A|-555-5-777-7-888-8-101010-10------------------|
D|----------------------------------------------|

G|----------------------------------------------|
D|----------------------------------------------|
A|-555-5-000-0-11111111-33333333-5~-------------|
D|----------------------------------------------|

Verse

Chorus

Bridge 2
G|-------|
D|-------|
A|-------|
D|-0~----|

__________________________________________________
G|----------------------------------------------| |
D|----------------------------------------------| |
A|--------------------00000000-11111111---------| |
D|--00000000-11111111---------------------------| |
                                                  |--- X3
G|----------------------------------------------| |
D|----------------------------------------------| |
A|----------------------------------------------| |
D|--55555555-44444444-55555555-44444444---------| |
__________________________________________________|


Chorus-similar thingy x6


THE END

            
            
Suggest correction
Creating personal tab
Creating personal tab
You can edit any tab online and save it as your Personal.

You can edit, replace or remove any tab part or add personal notes – all changes will be seen only by you.

Personal tabs can be accessed anytime from any device, even offline.
Learn more »
comments
print report bad tab
5 comments total. Showing first comments.
0 reply
phasesevenfold 213 Mar 03, 2009 02:27 PM

close, but listen to the verse carefully. the fill at the end is only played twice, not 4 times. make a note of that in a correction or something otherwise this looks really good

0 reply
Flyingboco 10 Mar 29, 2009 12:13 PM

Hey fred if ur watching look out ur window im there--this tab SUCKS--JKS

cYA TONIGHT

0 reply
musea7x 30 Apr 21, 2009 03:11 PM

really good tab, only thing that i would say is that this is easier to play than what you have for the chorus.

G|----------------------------------------------| |
D|----------------------------------------------| |
A|--5-5-555-6-66-6666---------------------------| |
D|--------------------7-7-777-8-88-8888---------| |
|--x2
G|----------------------------------------------|x2|
D|----------------------------------------------| |
A|-----5---5-----------5---5--------------------| |
D|-5-8---8---8-7-5-4-7---7---7-5-4--------------| |
___________________________________________________|

guest
You may want to rate the tab now too:
select rating
Wanna post a correction for this tab? Suggest correction