Oops, an error
Loading. Please wait.

Doing Time bass

version 1
version 1

Whole song

Interactive

5,568 views 3 this week
no commentswrite comment
1 2 3 4 5
x 3
add to favorites
×
Save as Personal and add changes to this tab that will be seen only by you. Learn more ›
×
You can save this tab as Personal to edit and correct it or add notes. All changes will be seen only by you. Learn more »
launch autoscroll
font size
0
reset
guitar tuner
backing track
0:00
0:00
edit
Autoscroll
slow
fast
+/-
esc
set tempo
stop
10:27 10:33
G|-----------------------------------------------------------------|
D|-----------------------------------------------------------------|
A|-----------------------------------------------------------------|
D|-2-------------------------------0-------------------------------|
   1 + 2 + 3 + 4 + 1 + 2 + 3 + 4 + 1 + 2 + 3 + 4 + 1 + 2 + 3 + 4 + 

G|-----------------------------------------------------------------|
D|-----------------------------------------------------------------|
A|-0---------------------------------------------------------------|
D|-----------------------------5p4-2-------------------------------|
   1 + 2 + 3 + 4 + 1 + 2 + 3 + 4 + 1 + 2 + 3 + 4 + 1 + 2 + 3 + 4 + 
 
G|-----------------------------------------------------------------|
D|---------------------------------------------------------------5-|
A|---------------------------------5-5-5-5-5-5-5-5-5-5-5-5-5-4-5---|
D|-2-2-2-2-2-2-2-2-2-2-2-2-2-2-2-5---------------------------------|
   1 + 2 + 3 + 4 + 1 + 2 + 3 + 4 + 1 + 2 + 3 + 4 + 1 + 2 + 3 + 4 + 

G|-----------------------------------------------------------------|
D|-7-7-7-7-7-7-7-7-7-7-7-7-7-7-7-7-9-9-9-8-8-8-7-7-7-5-5-5---------|
A|---------------------------------------------------------7-7-5-5-|
D|-----------------------------------------------------------------|
   1 + 2 + 3 + 4 + 1 + 2 + 3 + 4 + 1 + 2 + 3 + 4 + 1 + 2 + 3 + 4 + 

10:57
G|-----------------------------------------------------------------|
D|-----------------------------------------------------------------|
A|-----------------------------------------------------------------|
D|-2---5-2-5-2-0-2---2-5-2-5-2-0-2---2-5-2-5-2-0-8---8-7-5-7-5-0-2-|
   1 + 2 + 3 + 4 + 1 + 2 + 3 + 4 + 1 + 2 + 3 + 4 + 1 + 2 + 3 + 4 + 

G|-----------------------------------------------------------------|
D|-----------------------------------------------------------------|
A|-----------------------------------------------------------------|
D|---2-5-2-5-2-0-2---2-5-2-5-2-0-2---2-5-2-5-2-0-8---8-7-5-7-5-0-2-|
   1 + 2 + 3 + 4 + 1 + 2 + 3 + 4 + 1 + 2 + 3 + 4 + 1 + 2 + 3 + 4 + 

Verse 11:09
G|-----------------------------------------------------------------|
D|-----------------------------------------------------------------|
A|-----------------------------------------------------------------|
D|---2-2-2-2-2-2-2-2-2-2-2-2-1-0-2---2-2-2-2-2-2-2-2-2-2-2-2-1-0-2-|
   1 + 2 + 3 + 4 + 1 + 2 + 3 + 4 + 1 + 2 + 3 + 4 + 1 + 2 + 3 + 4 + 

G|-----------------------------------------------------------------|
D|-----------------------------------------------------------------|
A|-----------------------------------------------------------------|
D|---2-2-2-2-2-2-2-2-2-2-2-2-1-0-2---2-2-2-2-2-2-2-2-2-2-2-2-1-0-4-|
   1 + 2 + 3 + 4 + 1 + 2 + 3 + 4 + 1 + 2 + 3 + 4 + 1 + 2 + 3 + 4 + 

Pre Chorus
G|-----------------------------------------------------------------|
D|-----------------------------------------------------------------|
A|-----------------------------------------------------------------|
D|---4-4---4-4-4---4-4-4---4-2-4-5---5-5---5-5-5---5-5-5---5-5-5-5-|
   1 + 2 + 3 + 4 + 1 + 2 + 3 + 4 + 1 + 2 + 3 + 4 + 1 + 2 + 3 + 4 + 


G|-----------------------------------------------------------------|
D|-----------------------------------------------------------------|
A|-2-2-2-0-0-0-2-2-2-5-5-5-2-2-0-------------------0---0-5-0-0-4-5-|
D|-------------------------------5---5-5---5-5-5-5-----------------|
   1 + 2 + 3 + 4 + 1 + 2 + 3 + 4 + 1 + 2 + 3 + 4 + 1 + 2 + 3 + 4 + 

Chorus
G|-----------------------------------------------------------------|
D|-----------------------------------------------------------------|
A|-------------------------------------------------0---0-5-0-0-4-5-|
D|-9---\-3---0-0-0-9---\-3---0-0-0-5---5---5-5-4-5-----------------|
   1 + 2 + 3 + 4 + 1 + 2 + 3 + 4 + 1 + 2 + 3 + 4 + 1 + 2 + 3 + 4 + 

G|---------------------------------|
D|---------------------------------|
A|---------------------------------|
D|-9---\-3---0-3-0-9---------------|
   1 + 2 + 3 + 4 + 1 + 2 + 3 + 4 + 

Verse
G|-----------------------------------------------------------------|
D|-----------------------------------------------------------------|
A|-----------------------------------------------------------------|
D|-2---2-2-2-2-2-2-2-2-2-2-2-1-0-2---2-2-2-2-2-2-2-2-2-2-2-2-1-0-2-|
   1 + 2 + 3 + 4 + 1 + 2 + 3 + 4 + 1 + 2 + 3 + 4 + 1 + 2 + 3 + 4 + 

G|-----------------------------------------------------------------|
D|-----------------------------------------------------------------|
A|-----------------------------------------------------------------|
D|---2-2-2-2-2-2-2-2-2-2-2-2-1-0-2---2-2-2-2-2-2-2-2-2-2-2-2-1-0-4-|
   1 + 2 + 3 + 4 + 1 + 2 + 3 + 4 + 1 + 2 + 3 + 4 + 1 + 2 + 3 + 4 + 

Pre Chorus 11:54
G|-----------------------------------------------------------------|
D|-----------------------------------------------------------------|
A|-----------------------------------------------------------------|
D|---4-4---4-4-4---4-4-4---4-2-4-5---5-5---5-5-5---5-5-5---5-5-5-5-|
   1 + 2 + 3 + 4 + 1 + 2 + 3 + 4 + 1 + 2 + 3 + 4 + 1 + 2 + 3 + 4 + 


G|-----------------------------------------------------------------|
D|-----------------------------------------------------------------|
A|-2-2-2-0-0-0-2-2-2-5-5-5-2-2-0-------------------0---0-5-0-0-4-5-|
D|-------------------------------5---5-5---5-5-5-5-----------------|
   1 + 2 + 3 + 4 + 1 + 2 + 3 + 4 + 1 + 2 + 3 + 4 + 1 + 2 + 3 + 4 + 

Chorus 12:06
G|-----------------------------------------------------------------|
D|-----------------------------------------------------------------|
A|-------------------------------------------------0---0-5-0-0-8-7-|
D|-9---\-3---0-0-0-9---\-3---0-0-0-5---5---5-5-4-5-----------------|
   1 + 2 + 3 + 4 + 1 + 2 + 3 + 4 + 1 + 2 + 3 + 4 + 1 + 2 + 3 + 4 + 

G|---------------------------------|
D|---------------------------------|
A|---------------------------------|
D|-9---\-3---0-3-0-9---------------|
   1 + 2 + 3 + 4 + 1 + 2 + 3 + 4 + 

Bridge
G|-----------------------------------------------------------------|
D|-----------------------------------------------------------------|
A|---------------------------------2---2-2-2-2-5-4-0---0-0-0-5-4---|
D|-5---5---5-5-5-5-4---4-4-4-4-2-4-------------------------------5-|
   1 + 2 + 3 + 4 + 1 + 2 + 3 + 4 + 1 + 2 + 3 + 4 + 1 + 2 + 3 + 4 + 

G|-----------------------------------------------------------------|
D|-----------------------------------------------------------------|
A|---------------------------------2---2-2---2-2---2-2---2-2---2---|
D|-5---5---5-5-5-5-4---4-4-4-4-2-4---------------------------------|
   1 + 2 + 3 + 4 + 1 + 2 + 3 + 4 + 1 + 2 + 3 + 4 + 1 + 2 + 3 + 4 + 

G|-------------------------------------------------|
D|/9--9--9-9--9--9-9--9--9-9--9--7-----------------|
A|---------------------------------9--7--5-4-------|
D|--------------------------------------------9--7-|
   Triplet Triplet Triplet Triplet Triplet Triplet

Solo 12:30
G|-----------------------------------------------------------------|
D|-----------------------------------------------------------------|
A|-----------------------------------------------------------------|
D|-2---5-2-5-2-0-2---2-5-2-5-2-0-2---2-5-2-5-2-0-8---8-7-5-7-5-0-2-|
   1 + 2 + 3 + 4 + 1 + 2 + 3 + 4 + 1 + 2 + 3 + 4 + 1 + 2 + 3 + 4 + 

G|-------------------------------------------------------------------|
D|o-----------------------------------------------------------------o|
A|o-----------------------------------------------------------------o|
D|----2-5-2-5-2-0-2---2-5-2-5-2-0-2---2-5-2-5-2-0-8---8-7-5-7-5-0-2--|
    1 + 2 + 3 + 4 + 1 + 2 + 3 + 4 + 1 + 2 + 3 + 4 + 1 + 2 + 3 + 4 + 


G|-----------------------------------------------------------------|
D|-----------------------------------------------------------------|
A|-----------------------------------------------------------------|
D|---2-5-2-5-2-0-2---2-5-2-5-2-0-2---2-5-2-5-2-0-8---8-7-5-7-5-0-0-|
   1 + 2 + 3 + 4 + 1 + 2 + 3 + 4 + 1 + 2 + 3 + 4 + 1 + 2 + 3 + 4 + 

Interlude
G|-----------------------------------------------------------------|
D|---------------------------------------------------------------5-|
A|-------------------------------/-5-----------------------7-5-7---|
D|-2---------------------------------------------------------------|
   1 + 2 + 3 + 4 + 1 + 2 + 3 + 4 + 1 + 2 + 3 + 4 + 1 + 2 + 3 + 4 + 

G|-----------------------------------------------------------------|
D|-7-----------------------7-5-----9-9-9-8-8-8-7-7-7-5-5-5---------|
A|-----------------------------7---------------------------7-7-5-5-|
D|-----------------------------------------------------------------|
   1 + 2 + 3 + 4 + 1 + 2 + 3 + 4 + 1 + 2 + 3 + 4 + 1 + 2 + 3 + 4 + 

Verse
G|-----------------------------------------------------------------|
D|-----------------------------------------------------------------|
A|-----------------------------------------------------------------|
D|-2---2-2-2-2-2-2-2-2-2-2-2-1-0-2---2-2-2-2-2-2-2-2-2-2-2-2-1-0-2-|
   1 + 2 + 3 + 4 + 1 + 2 + 3 + 4 + 1 + 2 + 3 + 4 + 1 + 2 + 3 + 4 + 

G|-----------------------------------------------------------------|
D|---------------------------------------------0-2-5-2-0-----------|
A|-------------------------------------------------------2-0-------|
D|---2-2-2-2-2-2-2-2-2-2-2-2-1-0-2---2-2-2-2-2---------------4-2-4-|
   1 + 2 + 3 + 4 + 1 + 2 + 3 + 4 + 1 + 2 + 3 + 4 + 1 + 2 + 3 + 4 + 

Pre Chorus
G|-----------------------------------------------------------------|
D|-----------------------------------------------------------------|
A|-----------------------------------------------------------------|
D|---4-4---4-4-4---4-4-4---4-2-4-5---5-5---5-5-5---5-5-5---5-5-5-5-|
   1 + 2 + 3 + 4 + 1 + 2 + 3 + 4 + 1 + 2 + 3 + 4 + 1 + 2 + 3 + 4 + 


G|-----------------------------------------------------------------|
D|-----------------------------------------------------------------|
A|-2-2-2-0-0-0-2-2-2-5-5-5-2-2-0-------------------0---0-5-0-0-4-5-|
D|-------------------------------5---5-5---5-5-5-5-----------------|
   1 + 2 + 3 + 4 + 1 + 2 + 3 + 4 + 1 + 2 + 3 + 4 + 1 + 2 + 3 + 4 + 

Chorus 
G|-----------------------------------------------------------------|
D|-----------------------------------------------------------------|
A|-2---2-----------2---2---------------------------0---0-5-0-0-4-5-|
D|-------3---0-0-0-------3---0-0-0-5---5---5-5-4-5-----------------|
   1 + 2 + 3 + 4 + 1 + 2 + 3 + 4 + 1 + 2 + 3 + 4 + 1 + 2 + 3 + 4 + 

G|-----------------------------------------------------------------|
D|-----------------------------------------------------4-2-0-------|
A|-2---2-----------2---2---------------------------0---------2-0-1-|
D|-------3---0-0-0-------3---0-0-0-5---5---5-5-4-5-----------------|
   1 + 2 + 3 + 4 + 1 + 2 + 3 + 4 + 1 + 2 + 3 + 4 + 1 + 2 + 3 + 4 + 

G|-------------------------------------------------|
D|-------------------------------------------------|
A|-2-2-2-1-1-1-0-0-0---------------------------2---|
D|-------------------5-5-5-2-2-0-0-0-0-0-2-2-2-----|
   1 + 2 + 3 + 4 + 1 + 2 + 3 + 4 + 1 + 2 + 3 + 4 + 
Tabbed by Dave Vucko

            
            
Suggest correction
Creating personal tab
Creating personal tab
You can edit any tab online and save it as your Personal.

You can edit, replace or remove any tab part or add personal notes – all changes will be seen only by you.

Personal tabs can be accessed anytime from any device, even offline.
Learn more »
Give kudos to tab author, rate the tab!
1 2 3 4 5
comments
print report bad tab
guest
You may want to rate the tab now too:
select rating
Wanna post a correction for this tab? Suggest correction