Oops, an error
Loading. Please wait.

Eternal Rest bass

version 2
version 2

Whole song

Interactive

240 views 1 this week
no commentswrite comment
1 2 3 4 5
x 3
add to favorites
×
Save as Personal and add changes to this tab that will be seen only by you. Learn more ›
×
You can save this tab as Personal to edit and correct it or add notes. All changes will be seen only by you. Learn more »
launch autoscroll
font size
0
reset
guitar tuner
edit
Autoscroll
slow
fast
+/-
esc
set tempo
stop
G|o|-------------------------------------------------------------------|
D|-|o-----------------------------------------------------------------o|
A|-|o-3-33333---3-3-3-----------------3-33333---3-3-3-----------------o|
D|o|------------------1-3-3-1-1-3-1-3-----------------111-333-444-333--|
      1 + 2 + 3 + 4 + 1 + 2 + 3 + 4 + 1 + 2 + 3 + 4 + 1 + 2 + 3 + 4 +

G|-------------------------------------------------------------------|o|
D|o-----------------------------------------------------------------o|-|
A|o-5-55555---5-5-5-----------------5-55555---5-5-5-----------------o|-|
D|------------------3-5-5-3-3-5-3-5-----------------333-555-666-555--|o|
    1 + 2 + 3 + 4 + 1 + 2 + 3 + 4 + 1 + 2 + 3 + 4 + 1 + 2 + 3 + 4 +

0:39 Tempo Change
G|---------------------------------------------------------------------------------|
D|---------------------------------------------------------------------------------|
A|---------------------------------------------------------------------------------|
D|-0-------------------------------------------------------------------------------|
   1 + 2 + 3 + 4 + 1 + 2 + 3 + 4 + 1 + 2 + 3 + 4 + 1 + 2 + 3 + 4 + 1 + 2 + 3 + 4 + 

G|-----------------------------------------------------------------|
D|-----------------------------------------------------------------|
A|-----------------------------------------------------------------|
D|-0-0-0-0-0-0-0-0-0-0-0-0-0-0-0-0-0-0-0-0-0-0-0-0-0-0-0-0-0-0-6-5-|
   1 + 2 + 3 + 4 + 1 + 2 + 3 + 4 + 1 + 2 + 3 + 4 + 1 + 2 + 3 + 4 +

0:58
G|-------------------------------------------------------------------|
D|o-----------------------------------------------------------------o|
A|o-----------------------------------------------------------------o|
D|--3-0---0---0-3-0-3-0---0-3-0/6---3-0---0---0-3-0-3-0---0-3-0/6----|
    1 + 2 + 3 + 4 + 1 + 2 + 3 + 4 + 1 + 2 + 3 + 4 + 1 + 2 + 3 + 4 +

1:15
G|-------------------------------------------------------------------|
D|o-----------------------------------------------------------------o|
A|o-----------------------------------------------------------------o|x4
D|--0-0-0-0---------------------0-0-0-----------0-0-5-----3-----3h5--|
    1 e + a 2 e + a 3 e + a 4 e + a 1 e + a 2 e + a 3 e + a 4 e + a

1:31
G|-------------------------------------------------------------------|
D|o-----------------------------------------------------------------o|
A|o-----------------------------------------------------------------o|
D|--0-0-0-0---------------------0-0-0-----------0-0-0-----0-----0-0--|
    1 e + a 2 e + a 3 e + a 4 e + a 1 e + a 2 e + a 3 e + a 4 e + a

1:40
G|------------------------------------|
D|------------------------------------|
A|------------------------------------|
D|-0--0--0--0--0--0--0--0--0--0--0--0-|
   Triplet  Triplet  Triplet  Triplet

1:42
G|--------------------------------------------------|
D|o-------------------------------------------------|
A|o-----------------------------0---5-0-7-0-7-8-7-5-|
D|--000-000-------000-0-2-3-5-2---5-----------------|
    1 + 2 + 3 + 4 + 1 + 2 + 3 + 4 + 1 + 2 + 3 + 4 + 

G|--------------------------------------------------|
D|---------------------------------------5---5-3-2-o|
A|---------------------------5-3-5-7-5-7---7-------o|
D|-222-222-------222-2-3-5-2------------------------|
   1 + 2 + 3 + 4 + 1 + 2 + 3 + 4 + 1 + 2 + 3 + 4 + 

G|-------------------------|
D|-------------------------|
A|-------------------------|
D|-0-----------------------|
   1 + 2 + 3 + 4 + 1 + 2 + 

2:01
G|-------------------------------------------------|
D|-------------------------------------------------|
A|-------------------------------------------------|
D|-3-3-3-3-3-3-2-2-2-2-2-0-2-2-2-2-2-2-2-2-2-2-2-2-|
   1 + 2 + 3 + 1 + 2 + 3 + 1 + 2 + 3 + 1 + 2 + 3 + 

G|-------------------------------------------------|
D|-------------------------------------------------|
A|-------------0-0-0-0-0-0-------------------------|
D|-3-3-3-3-3-3-------------0-0-0-0-0-0-0-0-0-0-0-0-|
   1 + 2 + 3 + 1 + 2 + 3 + 1 + 2 + 3 + 1 + 2 + 3 + 

G|-------------------------------------------------|
D|-------------------------------------------------|
A|-------------------------------------------------|
D|-3-3-3-3-3-3-2-2-2-2-2-0-2-2-2-2-2-2-2-2-2-2-2-2-|
   1 + 2 + 3 + 1 + 2 + 3 + 1 + 2 + 3 + 1 + 2 + 3 + 

G|-------------------------------------------------------------------------------------------|
D|-------------------------7--8--7-----------7--8--7-----------7--8--7-----8-----------------|
A|-------------0-0-0-0-0-0----------10-8--7-----------10-8--7-----------10----10-8--10-8-7---|
D|-3-3-3-3-3-3-------------------------------------------------------------------------------|
   1 + 2 + 3 + 1 + 2 + 3 + Triplet  Triplet  Triplet  Triplet  Triplet  Triplet  Triplet 

2:22
G|-------------------------------------------------------------------|
D|o-----------------------------------------------------------------o|
A|o-----------------------------------------------------------------o|
D|--3-0---0---0-3-0-3-0---0-3-0/6---3-0---0---0-3-0-3-0---0-3-0/6----|
    1 + 2 + 3 + 4 + 1 + 2 + 3 + 4 + 1 + 2 + 3 + 4 + 1 + 2 + 3 + 4 +

2:39
G|-----------------------------------------------------------------|
D|-----------------------------------------------------------------|
A|-----------------------------------------------------------------|
D|-0---------------4---------------5---------------7---------------|
   1 + 2 + 3 + 4 + 1 + 2 + 3 + 4 + 1 + 2 + 3 + 4 + 1 + 2 + 3 + 4 +

G|-------------------------------------------------------------------------|
D|-------------------------------------------------------------------------|
A|-------------------------------------------------------------4-4-4-5-5-5-|
D|-0-------------023-------3-------8---------------8-8-8-7-7-7-------------|
   1 + 2 + 3 + 4 + 1 + 2 + 3 + 4 + 1 + 2 + 3 + 4 + Tri   Tri   Tri   Tri

G|-----------------------------------------------------------------|
D|-----------------------------------------------------------------|
A|-----------------------------------------------------------------|
D|-0-------0-------4---------------5---------------7---------------|
   1 + 2 + 3 + 4 + 1 + 2 + 3 + 4 + 1 + 2 + 3 + 4 + 1 + 2 + 3 + 4 +

G|-------------------------------------------------------------------------|
D|-------------------------------------------------------------------------|
A|-------------------------------------------------------------4-4-4-5-5-5-|
D|-0-------0-----023---------------8---------------8-8-8-7-7-7-------------|
   1 + 2 + 3 + 4 + 1 + 2 + 3 + 4 + 1 + 2 + 3 + 4 + Tri   Tri   Tri   Tri


3:12
G|-------------------------------------------------------------------|
D|o-----------------------------------------------------------------o|
A|o-----------------------------------------------------------------o|x4
D|--0-0-0-0---------------------0-0-0-----------0-0-5-----3-----3h5--|
    1 e + a 2 e + a 3 e + a 4 e + a 1 e + a 2 e + a 3 e + a 4 e + a

3:28
G|-------------------------------------------------------------------|
D|o-----------------------------------------------------------------o|
A|o-----------------------------------------------------------------o|x4
D|--0-0-0-0---------------------0-0-0-----------0-0-5-----3-----3h5--|
    1 e + a 2 e + a 3 e + a 4 e + a 1 e + a 2 e + a 3 e + a 4 e + a

G|------------------------------------------------------------------------------|
D|-7--8--7-----------7--8--7-----------7--8--7-----8----------------------------|
A|----------10-8--7-----------10-8--7-----------10----10-8--10-8--7-------------|
D|------------------------------------------------------------------------0-----|
   Triplet  Triplet  Triplet  Triplet  Triplet  Triplet  Triplet  Triplet


Outro 3:52
G|o|-------------------------------------------------------------------|
D|-|o-----------------------------------------------------------------o|
A|-|o-------/-5---3---1-------0-1-0-------------/-5---4-------5---7---o|
D|o|--0-----------------------------3-5--------------------------------|
      1 + 2 + 3 + 4 + 1 + 2 + 3 + 4 + 1 + 2 + 3 + 4 + 1 + 2 + 3 + 4 +

G|-----------------------------------------------------------------|
D|-----------------------------------------------------------------|
A|-----------------------------------------------5-4-------5---7---|
D|-0-7-8-5-7-3-5-2-3-----/-8---7---5-------------------------------|
   1 + 2 + 3 + 4 + 1 + 2 + 3 + 4 + 1 + 2 + 3 + 4 + 1 + 2 + 3 + 4 +

G|-----------------------------------------------------------------o|
D|------------------------------------------------------------------|
A|-------/-5---3---1-------0-1-0-------------/-5---4-------5---7----|
D|-0-----------------------------3-5-------------------------------o|
   1 + 2 + 3 + 4 + 1 + 2 + 3 + 4 + 1 + 2 + 3 + 4 + 1 + 2 + 3 + 4 +

G|-----------------------------------------------------------------|
D|-----------------------------------------------------------------|
A|-----------------------------------------------------------------|
D|-0---------------------------------------------------------------|
   1 + 2 + 3 + 4 + 1 + 2 + 3 + 4 + 1 + 2 + 3 + 4 + 1 + 2 + 3 + 4 +

Tabbed by Dave Vucko

            
            
Suggest correction
Creating personal tab
Creating personal tab
You can edit any tab online and save it as your Personal.

You can edit, replace or remove any tab part or add personal notes – all changes will be seen only by you.

Personal tabs can be accessed anytime from any device, even offline.
Learn more »
Give kudos to tab author, rate the tab!
1 2 3 4 5
comments
print report bad tab
guest
You may want to rate the tab now too:
select rating
Wanna post a correction for this tab? Suggest correction