Oops, an error
Loading. Please wait.

Flash Of The Blade bass

version 1
version 1

Whole song

Interactive

8,756 views 3 this week
4 commentsread comments
1 2 3 4 5
x 7
add to favorites
×
Save as Personal and add changes to this tab that will be seen only by you. Learn more ›
×
You can save this tab as Personal to edit and correct it or add notes. All changes will be seen only by you. Learn more »
launch autoscroll
font size
0
reset
guitar tuner
edit
Autoscroll
slow
fast
+/-
esc
set tempo
stop
Band: Avenged Sevenfold
Song: Flash of the Blade (Iron Maiden Cover)
Album: Diamonds in the Rough
Track: 04
Year: 2008

Intro
G|-----------------------|
D|--7~--8~-5~--7~--3~-5~-| x2
A|--5~--6~-3~--5~--1~-3~-|
D|-----------------------|

Verse
G|--------------------------------------------------------------------------|
D|--------------------------------------------------------3-2-0-------------| x2
A|---0-0-0-0-0-0-0-0-3-3-3-3-3-3-2-2-2-2-2-2-1-1-1-1-1-1--------3-2-1-0-----|
D|--------------------------------------------------------------------------|

Chorus
G|----------------------------------9------------------------------------------|
D|--------------------------6-6-7-9---9-7-6------------------------------------| x4
A|--5-5-5-5-5-5-5-5-4-4-5-7-----------------7-3-3-3-3-3-3-3-3-2-2--0--2--0-----|
D|--------------------------------------------------------------------------5--|

Pre Verse
G|-----------------------------------------------------------------------------|
D|-----------------------------------------------------------------------------| x4
A|--5-5-5-5-5-5-5-5-5-5-5-5-6-6-6-6-6-6-6-6-6-6-6-6-1-1-1-1-1-1-1-1-1-1-1-1-1--|
D|-----------------------------------------------------------------------------|

Verse
G|--------------------------------------------------------------------------|
D|--------------------------------------------------------3-2-0-------------| x2
A|---0-0-0-0-0-0-0-0-3-3-3-3-3-3-2-2-2-2-2-2-1-1-1-1-1-1--------3-2-1-0-----|
D|--------------------------------------------------------------------------|

Chorus
G|----------------------------------9------------------------------------------|
D|--------------------------6-6-7-9---9-7-6------------------------------------| x4
A|--5-5-5-5-5-5-5-5-4-4-5-7-----------------7-3-3-3-3-3-3-3-3-2-2--0--2--0-----|
D|--------------------------------------------------------------------------5--|

Pre Solo                                    
G|---------------------------------------|------------------------------------------|
D|---7-7-7-7-9-9-10-7-7-7-7-9-9-10-9-7-7-|-6-6-6-7-9-7-6---12-10-9----10-9----------| x4
A|---------------------------------------|-------------------------12------12-10----|
D|---------------------------------------|------------------------------------------|

Solo  
G|---------7-----7-------7-----7----7-----7----7-----7-----9-----9----9-9-9-9-9-9-7--------|
D|------------7-------------7----------7----------7-----------9---------------------9-8-7--|
A|---5--5----------5--5----------5----------5-----------7----------7-----------------------|
D|-----------------------------------------------------------------------------------------|

G|-------12------12------12------12------12------12------12------12---|
D|-----------12--------------12--------------12--------------12-------|
A|---10--------------10--------------10--------------10---------------|
D|--------------------------------------------------------------------|
  
G|------7-----7----7-----7-----7-----7-4-5-7-5-4-------7-----7-----7-----7-----7-----7---|
D|---------7----------7-----------7--------------5--------7-----------7-----------7------|
A|---5----------5-----------5-----------------------5-----------5-----------5------------|
D|---------------------------------------------------------------------------------------|

G|---7-5---5-4----9-----9-----9-----9-----9-9-7---7-----------------|
D|-------7-----------9-----------9--------------9---9--7---5--------|
A|-------------7-----------7-----------7-----------------7---7--5---|
D|------------------------------------------------------------------|
  
G|------------------------------------------7-----7----7-----7----7-----7----7-----7---|
D|------5-----5-----5-----5-----5-----5--------7----------7----------7----------7------|
A|---------5-----------5-----------5-----5-----------5----------5---------5------------|
D|---5-----------5-----------5---------------------------------------------------------|

Post Solo
G|-----------|
D|-----------| x3
A|--------7--|
D|--7--9-----|

Chorus
G|----------------------------------9------------------------------------------|
D|--------------------------6-6-7-9---9-7-6------------------------------------| x6
A|--5-5-5-5-5-5-5-5-4-4-5-7-----------------7-3-3-3-3-3-3-3-3-2-2--0--2--0-----|
D|--------------------------------------------------------------------------5--|

Outro
G|-----------------------------------------------------------------------------|
D|-----------------------------------------------------------------------------| x4
A|--5-5-5-5-5-5-5-5-5-5-5-5-6-6-6-6-6-6-6-6-6-6-6-6-1-1-1-1-1-1-1-1-1-1-1-1-1--|
D|-----------------------------------------------------------------------------|

            
            
Suggest correction
Creating personal tab
Creating personal tab
You can edit any tab online and save it as your Personal.

You can edit, replace or remove any tab part or add personal notes – all changes will be seen only by you.

Personal tabs can be accessed anytime from any device, even offline.
Learn more »
comments
print report bad tab
4 comments total. Showing first comments.
0 reply
crazycram42094 72 Nov 17, 2008 03:04 PM

this is the same tab as that one for iron maiden.

0 reply
Jon777 342 Mar 23, 2009 04:53 PM

amazing tab, man!

0 reply
Xanron 172 Nov 25, 2009 07:36 AM

The intro sounds like tapping.

guest
You may want to rate the tab now too:
select rating
Wanna post a correction for this tab? Suggest correction