Oops, an error
Loading. Please wait.

God Hates Us tab

version 2
version 2

Whole song

29,581 views 15 this week
3 commentsread comments
1 2 3 4 5
x 11
add to favorites
×
Save as Personal and add changes to this tab that will be seen only by you. Learn more ›
×
You can save this tab as Personal to edit and correct it or add notes. All changes will be seen only by you. Learn more »
launch autoscroll
font size
0
reset
how to read this tab
guitar tuner
backing track
0:00
0:00
edit
Autoscroll
slow
fast
+/-
esc
set tempo
stop
Author
My first tab, so take it easy. Enjoy! A7X FoREVer!!
Intro
e-------------------------------------------------------------------------------| 4x
b-10-----------10-----------8----------8----------6----------6------------------|
g-----10-----------10-----------9----------9----------7----------7--------------|
d---------12-----------12-----------10---------10---------7----------7----------|
a-------------------------------------------------------------------------------|
d-------------------------------------------------------------------------------|

e------------------------------------------------------------------------------|
b-5---------5------------------------------------------------------------------|
g----7----------7--------------------------------------------------------------|
d--------8----------8----------------------------------------------------------|
a------------------------------------------------------------------------------|
d------------------------------------------------------------------------------|


Still working on the next part.

Riff
e-----------------------------------------------------------------------------|7x
b-----------------------------------------------------------------------------|
g-7---7---5--8-7--------------------------------------------------------------|
d-7---7---5--8-7--------------------------------------------------------------|
a-5---5---3--6-5--------------------------------------------------------------|
d--000-000--------------------------------------------------------------------|

On the 7th time

e----------------------------------------------------------------------------|
b----------------------------------------------------------------------------|
g-7---7----5--6--------------------------------------------------------------|
d-7---7----5--6--------1-1-1-8-8-8-------------------------------------------|
a-5---5----3--8--------1-1-1-6-6-6-------------------------------------------|
d--000--000------------1-1-1-------------------------------------------------|

e-----------------------------------------------------------------------------|3x
b-----------------------------------------------------------------------------|
g-7---7---5-6-7---------------------------------------------------------------|
d-7---7---5-6-7---------------------------------------------------------------|
a-5---5---3-8-5---------------------------------------------------------------|
d--000-000--------------------------------------------------------------------|


On the 3rd time.

e----------------------------------------------------------------------------|
b----------------------------------------------------------------------------|
g-7---7----5--6--------------------------------------------------------------|
d-7---7----5--6--------1-1-1-8-8-8-------------------------------------------|
a-5---5----3--8--------1-1-1-6-6-6-------------------------------------------|
d--000--000------------1-1-1-------------------------------------------------|

e-----------------------------------------------------------------------------|3x
b-----------------------------------------------------------------------------|
g-7---7---5-6-7---------------------------------------------------------------|
d-7---7---5-6-7---------------------------------------------------------------|
a-5---5---3-8-5---------------------------------------------------------------|
d--000-000--------------------------------------------------------------------|


On the 3rd time.

e----------------------------------------------------------------------------|
b----------------------------------------------------------------------------|
g-7---7----5--6--------------------------------------------------------------|
d-7---7----5--6--------1-1-1-8-8-8-------------------------------------------|
a-5---5----3--8--------1-1-1-6-6-6-------------------------------------------|
d--000--000------------1-1-1-------------------------------------------------|


e----------------------------------------------------------------------------|
b----------------------------------------------------------------------------|
g----7-7\5-5/8-----10-10\8-8-7--------7-7\5-5/8------------------------------|
d-0--------------0-----------------0----------------1-1-1-1-0----------------|
a-0--5-5\3-3/6---0--8--8\6-6-5-----0--5-5\3-3/6-----1-1-1-1-0----------------|
d-0--------------0-----------------0----------------1-1-1-1-0----------------|

e----------------------------------------------------------------------------|
b----------------------------------------------------------------------------|
g----7-7\5-5/8-----10-10\8-8-7--------7-7\5-5/8------------------------------|
d-0--------------0-----------------0----------------1-1-1-1-0----------------|
a-0--5-5\3-3/6---0--8--8\6-6-5-----0--5-5\3-3/6-----1-1-1-1-0----------------|
d-0--------------0-----------------0----------------1-1-1-1-0----------------|


Pre Chorus
e----------------------------------------------------------------------------|
b----------------------------------------------------------------------------|
g----------------------------------------------------------------------------|
d----------------------------------------------------------------------------|
a----------------------------------------------------------------------------|
d-0-0-12-0-10-0-0-13-0-12-0-0-10-0-10-12----0-0-12-0-10-0-0-13-0-12-0-17-16--|

e----------------------------------------------------------------------------|
b----------------------------------------------------------------------------|
g----------------------------------------------------------------------------|
d----------------------------------------------------------------------------|
a----------------------------------------------------------------------------|
d-0-0-12-0-10-0-0-13-0-12-0-0-10-0-10-12----0-0-12-0-10-0-0-13-0-12-0-3-6-9--|

e----------------------------------------------------------------------------|
b----------------------------------------------------------------------------|
g----------------------------------------------------------------------------|
d----------------------------------------------------------------------------|
a----------------------------------------------------------------------------|
d-0-0-12-0-10-0-0-13-0-12-0-0-10-0-10-12----0-0-12-0-10-0-0-13-0-12-0-17-16--|

e----------------------------------------------------------------------------|
b----------------------------------------------------------------------------|
g----------------------------------------------------------------------------|
d----------------------------------------------------------------------------|
a----------------------------------------------------------------------------|
d-0-0-12-0-10-0-0-13-0-12-0-0-10-0-10-12----0-0-12-0-10-0-0-13-0-12-0-3-6-9--|


Chorus
e-----------------------------------------------------------------------------|4x
b-----------------------------------------------------------------------------|
g-----------------------------------------------------------------------------|
d-0-/6-3\9-6--3-6-3\9-6-------------------------------------------------------|
a-0-/6-3\9-6--3-6-3\9-6-------------------------------------------------------|
d-0-/6-3\9-6--3-6-3\9-6-------------------------------------------------------|


(Again)
e----------------------------------------------------------------------------|
b----------------------------------------------------------------------------|
g----7-7\5-5/8-----10-10\8-8-7--------7-7\5-5/8------------------------------|
d-0--------------0-----------------0----------------1-1-1-1-0----------------|
a-0--5-5\3-3/6---0--8--8\6-6-5-----0--5-5\3-3/6-----1-1-1-1-0----------------|
d-0--------------0-----------------0----------------1-1-1-1-0----------------|

e----------------------------------------------------------------------------|
b----------------------------------------------------------------------------|
g----7-7\5-5/8-----10-10\8-8-7--------7-7\5-5/8------------------------------|
d-0--------------0-----------------0----------------1-1-1-1-0----------------|
a-0--5-5\3-3/6---0--8--8\6-6-5-----0--5-5\3-3/6-----1-1-1-1-0----------------|
d-0--------------0-----------------0----------------1-1-1-1-0----------------|

Riff
e-----------------------------------------------------------------------------|3x
b-----------------------------------------------------------------------------|
g-7---7---5-6-7---------------------------------------------------------------|
d-7---7---5-6-7---------------------------------------------------------------|
a-5---5---3-8-5---------------------------------------------------------------|
d--000-000--------------------------------------------------------------------|


On 3rd time.
e----------------------------------------------------------------------------|
b----------------------------------------------------------------------------|
g-7---7----5--6--------------------------------------------------------------|
d-7---7----5--6--------1-1-1-8-8-8-------------------------------------------|
a-5---5----3--8--------1-1-1-6-6-6-------------------------------------------|
d--000--000------------1-1-1-------------------------------------------------|

e-----------------------------------------------------------------------------|9x
b-----------------------------------------------------------------------------|
g-7---7---5-6-7---------------------------------------------------------------|
d-7---7---5-6-7---------------------------------------------------------------|
a-5---5---3-8-5---------------------------------------------------------------|
d--000-000--------------------------------------------------------------------|


Pre Chorus
e----------------------------------------------------------------------------|
b----------------------------------------------------------------------------|
g----------------------------------------------------------------------------|
d----------------------------------------------------------------------------|
a----------------------------------------------------------------------------|
d-0-0-12-0-10-0-0-13-0-12-0-0-10-0-10-12----0-0-12-0-10-0-0-13-0-12-0-17-16--|


e----------------------------------------------------------------------------|
b----------------------------------------------------------------------------|
g----------------------------------------------------------------------------|
d----------------------------------------------------------------------------|
a----------------------------------------------------------------------------|
d-0-0-12-0-10-0-0-13-0-12-0-0-10-0-10-12----0-0-12-0-10-0-0-13-0-12-0-3-6-9--|


e----------------------------------------------------------------------------|
b----------------------------------------------------------------------------|
g----------------------------------------------------------------------------|
d----------------------------------------------------------------------------|
a----------------------------------------------------------------------------|
d-0-0-12-0-10-0-0-13-0-12-0-0-10-0-10-12----0-0-12-0-10-0-0-13-0-12-0-17-16--|

e----------------------------------------------------------------------------|
b----------------------------------------------------------------------------|
g----------------------------------------------------------------------------|
d----------------------------------------------------------------------------|
a----------------------------------------------------------------------------|
d-0-0-12-0-10-0-0-13-0-12-0-0-10-0-10-12----0-0-12-0-10-0-0-13-0-12-0-3-6-9--|


Chorus
e-----------------------------------------------------------------------------|4x
b-----------------------------------------------------------------------------|
g-----------------------------------------------------------------------------|
d-0-/6-3\9-6--3-6-3\9-6-------------------------------------------------------|
a-0-/6-3\9-6--3-6-3\9-6-------------------------------------------------------|
d-0-/6-3\9-6--3-6-3\9-6-------------------------------------------------------|


(Again)
e----------------------------------------------------------------------------|
b----------------------------------------------------------------------------|
g----7-7\5-5/8-----10-10\8-8-7--------7-7\5-5/8------------------------------|
d-0--------------0-----------------0----------------1-1-1-1-0----------------|
a-0--5-5\3-3/6---0--8--8\6-6-5-----0--5-5\3-3/6-----1-1-1-1-0----------------|
d-0--------------0-----------------0----------------1-1-1-1-0----------------|


e----------------------------------------------------------------------------|
b----------------------------------------------------------------------------|
g----7-7\5-5/8-----10-10\8-8-7--------7-7\5-5/8------------------------------|
d-0--------------0-----------------0----------------1-1-1-1-0----------------|
a-0--5-5\3-3/6---0--8--8\6-6-5-----0--5-5\3-3/6-----1-1-1-1-0----------------|
d-0--------------0-----------------0----------------1-1-1-1-0----------------|


Breakdown
e----------------------------------------------------------------------------|
b----------------------------------------------------------------------------|
g----------------------------------------------------------------------------|
d----------------------------------------------------------------------------|
a-0-0-0-0-0---0-0-0-0---0-0-0-0---0-0-0--------------------------------------|
d-0-0-0-0-0---0-0-0-0---0-0-0-0---0-0-0--------------------------------------|


e----------------------------------------------------------------------------|
b----------------------------------------------------------------------------|
g----------------------------------------------------------------------------|
d----------------------------------------------------------------------------|
a----------------------------------------------------------------------------|
d-0-0-12-0-10-0-0-13-0-12-0-0-10-0-10-12----0-0-12-0-10-0-0-13-0-12-0-17-16--|


e----------------------------------------------------------------------------|
b----------------------------------------------------------------------------|
g----------------------------------------------------------------------------|
d----------------------------------------------------------------------------|
a----------------------------------------------------------------------------|
d-0-0-12-0-10-0-0-13-0-12-0-0-10-0-10-12----0-0-12-0-10-0-0-13-0-12-0-3-6-9--|


e----------------------------------------------------------------------------|
b----------------------------------------------------------------------------|
g----------------------------------------------------------------------------|
d----------------------------------------------------------------------------|
a----------------------------------------------------------------------------|
d-0-0-12-0-10-0-0-13-0-12-0-0-10-0-10-12----0-0-12-0-10-0-0-13-0-12-0-17-16--|


e----------------------------------------------------------------------------|
b----------------------------------------------------------------------------|
g----------------------------------------------------------------------------|
d----------------------------------------------------------------------------|
a----------------------------------------------------------------------------|
d-0-0-12-0-10-0-0-13-0-12-0-0-10-0-10-12----0-0-12-0-10-0-0-13-0-12-0-3-6-9--|

No Solo Yet. But rhythm for solo is the chorus.



e-----------------------------------------------------------------------------|4x
b-----------------------------------------------------------------------------|
g----7-7\5-5/8-----10-10\8-8-7--------7-7\5-5/8-------------------------------|
d-0--------------0-----------------0----------------1-1-1-1-0-----------------|
a-0--5-5\3-3/6---0--8--8\6-6-5-----0--5-5\3-3/6-----1-1-1-1-0-----------------|
d-0--------------0-----------------0----------------1-1-1-1-0-----------------|

The Intro is the outro also. Sorry for any mistakes. Comment and Rate. Thnks & Enjoy!!!

            
            
Suggest correction
Creating personal tab
Creating personal tab
You can edit any tab online and save it as your Personal.

You can edit, replace or remove any tab part or add personal notes – all changes will be seen only by you.

Personal tabs can be accessed anytime from any device, even offline.
Learn more »
comments
print report bad tab
3 comments total.
+1 reply
PuRs3l 26 Jul 30, 2010 06:33 AM

The part in the beginning is like this
e|---8---8---------------------------------|
B|10---8---8-10-8--------------------------|
G|------------------10-7-9-7---------------|
D|---------------------------8-7-----------|
A|-----------------------------------------|
D|-----------------------------------------|

e|-----------------------------------------------------------------17-20------|
B|---------------------------------------------------17-20-18-17-18-----------|
G|------------------12-----------14-12-10----18-18h19-------------------------|
D|-11---11---12--14-----15-14-15 ---------------------------------------------|
A|----------------------------------------------------------------------------|
D|----------------------------------------------------------------------------|

+1 reply
PuRs3l 26 Jul 30, 2010 06:35 AM

Whoops. meant to make the b string on the second part like this...
B|---------------------------------------------------17-20-18p17h18-----------|

-1 reply
TDWP20814 10 Aug 17, 2010 06:23 PM

i sat down for like 5 minutes and figured that out. 3/5

guest
You may want to rate the tab now too:
select rating
Wanna post a correction for this tab? Suggest correction