Oops, an error
Loading. Please wait.

Gunslinger bass

version 1
version 1
30,765 views 24 this week
7 commentsread comments
1 2 3 4 5
x 6
add to favorites
×
Save as Personal and add changes to this tab that will be seen only by you. Learn more ›
×
You can save this tab as Personal to edit and correct it or add notes. All changes will be seen only by you. Learn more »
launch autoscroll
font size
0
reset
guitar tuner
backing track
0:00
0:00
edit
Autoscroll
slow
fast
+/-
esc
set tempo
stop
Gunslinger

After intro (1:22) Part.1
G|------------------------------------------------|
D|---------------------------------------- -3333--|    X2
A|-------------1---3----------------1xxx----------|
D|-0--3--5----------------0--3--5-----------------|

After intro Part.2
G|--------------------------------------------|
D|-------------------------3------------------|      X2
A|--5p3h5p3h5p3h5p3-----5p3h5p3h5p3h5p3--xxxx-|
D|--------------------------------------------|

Pre-Chorus     ”after all that we’ve been through” (1:47)
G|-----------------|
D|-----------------|
A|-1~-----3~-------|
D|-----------------|

Chorus
G|------------------------------------------------------------|
D|------------2h3/5/3-----------2h3p2-------------------------|
A|-5-55-5-5----------3-33-3-3--------0-00-0--0-0-1-11-1-11-11-|
D|------------------------------------------------------------|

Bridge part.1
G|-----------------------------------|
D|-----------------------------------|
A|-1111111111111111-3333333333333333-|
D|-----------------------------------|

Bridge Part.2   ”I’ve always been true” 
G|---------------------------------|
D|---------------------------------|      X2
A|-1-1-1-1-3-3-3-3-8-8-7-7-5-5-3-3-|
D|---------------------------------|

Bridge Part.3
G|----------------------------------------|
D|----------------------------------------|
A|-1-1-1-1-3-3-3-3-5-5-7-7-8-8-10-10------|
D|----------------------------------------|

Bridge part.4 (variations of part 2)
G|---------------------------------|
D|---------------------------------|
A|-1-1-1-1-3-3-3-3-------------3-3-|
D|-----------------3-3-2-2-0-0-----|

G|--------------------------------------|
D|--------------------------------------|
A|-1-1-1-1-3-3-3-3----8-----7---5-5-3-3-|
D|------------------08--807--7----------|

Pre-chorus 

chorus 

Outro
G|-------------------------------------|
D|-------------------------------------|
A|-1111111111111111-3333333333333333-5~|
D|-------------------------------------|

Hammer-on = h
Pull-off  = p
Let ring  = ~
Slide     = /

            
            
Suggest correction
Creating personal tab
Creating personal tab
You can edit any tab online and save it as your Personal.

You can edit, replace or remove any tab part or add personal notes – all changes will be seen only by you.

Personal tabs can be accessed anytime from any device, even offline.
Learn more »
comments
print report bad tab
7 comments total. Showing first comments.
+1 reply
mikee-rascal 94 Oct 22, 2008 11:14 AM

great tab has helped me out loads 5 *s

+1 reply
zuthi 148 Oct 23, 2008 10:20 AM

I've been looking for the gunslinger bass tab for ages so i got bored of waiting and tabbed it myself. Lol, thanks for feedback :)

0 reply
FBassman 1,012 Nov 07, 2008 01:12 PM

its a decent tab. you dont have the fills right but most of the chords are right the only thing in the intro is it should go 0-3-5-6 instead of to a Bb on the A string

guest
You may want to rate the tab now too:
select rating
Wanna post a correction for this tab? Suggest correction