Oops, an error
Loading. Please wait.

Gunslinger bass

version 2
version 2
12,935 views 3 this week
2 commentsread comments
1 2 3 4 5
x 6
add to favorites
×
Save as Personal and add changes to this tab that will be seen only by you. Learn more ›
×
You can save this tab as Personal to edit and correct it or add notes. All changes will be seen only by you. Learn more »
launch autoscroll
font size
0
reset
guitar tuner
backing track
0:00
0:00
edit
Autoscroll
slow
fast
+/-
esc
set tempo
stop
Author
Band: Avenged Sevenfold
Song: Gunslinger
Album: Avenged sevenfold
Tab: Bass
Tuning: Drop D
Difficulty: Novice/Intermediate

Tabbed By Negociator 



Heavy bit (1:22)
G|--------------------------------------------------|
D|--------------------------------------------------|
A|-----------------3-3-3-3------------------3-3-3-3-|
D|-0—0-3—3-5-5-6-7----------0-0-3-3-0-0-0-0---------|

G|---------------------------------------------|
D|-0--0--0--0--0-3-3-3--0--0--0----------------| X2
A|--3--3--3--3-----------3--3--3-0-0-0-0-0-0-0-|
D|---------------------------------------------|

Pre-Chorus     ”after all that we’ve been through” (1:47)
G|-----------------|
D|-----------------|
A|-1~~~-----3~~~---|
D|-----------------|


Chorus
G|-----------------------------------------------------|
D|---------------------------------2---2----2-3-2------|
A|-5—5-5-5-5-5---5-7-8-7-5--3--3-3---3----3-------5-3--|
D|-----------------------------------------------------|

G|-----------------------------------------------------|
D|---------------0--0-2------------------3---3---5-----|
A|-0-0-0-0-0-0-----------1--1-1-1-1-1--1--1-1--1-------|
D|-----------------------------------------------------|

G|-----------------------------------------------------|
D|---------------------------------2---2----2-3-2------|
A|-5—5-5-5-5-5---5-7-8-7-5--3--3-3---3----3-------5-3--|
D|-----------------------------------------------------|

G|-----------------------------------------------------|
D|---------------0--0-2------------------3---3---5-----|
A|-0-0-0-0-0-0-----------1--1-1-1-1-1--1--1-1--1-------|
D|-----------------------------------------------------|

G|-------------------------------------------|
D|-------------------------------------------|
A|-1--111--111--111--113--333--333--333—33---|
D|-------------------------------------------|


“I’ve always been true”
Bridge
G|-----------------------------------|
D|-----------------------------------|
A|-1-111-111-111-113-333-333-333-33--|
D|-----------------------------------|
 
G|---------------------------------|
D|---------------------------------|
A|-3-333-332-2-2-3-2-0-2-----------|
D|---------------------------------|

G|----------------------------------------|
D|----------------------------------------|
A|-5-555-553-333-33-1-111-111-111-11------|
D|----------------------------------------|

G|---------------------------------------|
D|------------------3-333-332-2-2-3-2-0-2|
A|-3-333-333-333-33----------------------|
D|---------------------------------------|

G|--------------------|
D|--------------------|
A|-5-555-553-333-332--|
D|--------------------|


Solo
G|-----------------------------------------------------|
D|-----------------------------------------------------|
A|-1-111-111-111-113-333-333-333-33--------------------|
D|---------------------------------3-333-333-333-330---|

G|-----------------------------------------------------|
D|-----------------------------------------------------|
A|-------3-333-33-1-111-111-111-113-333-333-333-33-----|
D|-000-00-----------------------------------------3----|

G|-----------------------------------------------------|
D|-----------------------------------------------------|
A|-----------------------3-333-331---------------------|
D|-333-333-333-330-000-00------------------------------|


Pre-chorus 
”after all that we’ve been through”
G|-----------------|
D|-----------------|
A|-3-3-3-3-3-3-3-3-|
D|-----------------|


Chorus
G|-----------------------------------------------------|
D|---------------------------------2---2----2-3-2------|
A|-5—5-5-5-5-5---5-7-8-7-5--3--3-3---3----3-------5-3--|
D|-----------------------------------------------------|

G|-----------------------------------------------------|
D|---------------0--0-2------------------3---3---5-----|
A|-0-0-0-0-0-0-----------1--1-1-1-1-1--1--1-1--1-------|
D|-----------------------------------------------------|

G|-----------------------------------------------------|
D|---------------------------------2---2----2-3-2------|
A|-5—5-5-5-5-5---5-7-8-7-5--3--3-3---3----3-------5-3--|
D|-----------------------------------------------------|

G|-----------------------------------------------------|
D|---------------0--0-2------------------3---3---5-----|
A|-0-0-0-0-0-0-----------1--1-1-1-1-1--1--1-1--1-------|
D|-----------------------------------------------------|

G|-------------------------------------------|
D|-------------------------------------------|
A|-1--111--111--111--113--333--333--333—33---|
D|-------------------------------------------|


Outro
G|--------------------------------------------|
D|--------------------------------------------|
A|-1-111-111-111-113-333-333-333-33--5~~~~~~--|
D|--------------------------------------------|

            
            
Suggest correction
Creating personal tab
Creating personal tab
You can edit any tab online and save it as your Personal.

You can edit, replace or remove any tab part or add personal notes – all changes will be seen only by you.

Personal tabs can be accessed anytime from any device, even offline.
Learn more »
comments
print report bad tab
2 comments total.
0 reply
BassDude1396 10 Mar 09, 2011 11:15 AM

This tab is accurate in places such as the intro and chorus but other than that ,everything is way off ,maybe someone can help fix this ?

0 reply
Mars Sevenfold 241 Oct 05, 2013 01:56 AM

its pretty close .. good job mann ..

guest
You may want to rate the tab now too:
select rating
Wanna post a correction for this tab? Suggest correction