Oops, an error
Loading. Please wait.
We have an official Hail To The King tab made by UG professional guitarists. Check out the tab »
×
6,526 views 9 this week
2 commentsread comments
1 2 3 4 5
x 10
add to favorites
×
Save as Personal and add changes to this tab that will be seen only by you. Learn more ›
×
You can save this tab as Personal to edit and correct it or add notes. All changes will be seen only by you. Learn more »
launch autoscroll
font size
0
reset
how to read this tab
guitar tuner
backing track
0:00
0:00
edit
Autoscroll
slow
fast
+/-
esc
set tempo
stop
----------------------------------------------------------------------------
                           Hail to the King
                           Avenged Sevenfold
----------------------------------------------------------------------------

Synyster Gates has done it again. The lead guitar in this song is very energetic. 
Even though the guitar solo isn’t a complete “shred-fest”, it works well with this song. Enjoy!

Username: dkm817 (same on X box live)
Youtube Cover: https://www.youtube.com/watch?v=HayvysbzxvY
Email: guitardrums@rockfan.com

Guitar 1 Rhythmic (C# G# C# F# A# D#)
Guitar 2 Lead     (C# G# C# F# A# D#)
Guitar 3 Backup   (C# G# C# F# A# D#)

NOTE: This was exported off of guitar pro.

Guitar 1

Starts at (00:16)

  Q    Q    Q    Q               Q    Q    Q    Q             
----------------------|-------|----------------------|-------|
----------------------|-------|----------------------|-------|
----------------------|-------|----------------------|-------|
--2----4----5---------|-------|--2----4----5---------|-------|
--2----4----5---------|-------|--2----4----5---------|-------|
--2----4----5---------|-------|--2----4----5---------|-------|


  Q    Q    Q    E  E             Q    Q    Q    E  E           
-----------------------|-------|-----------------------|-------|
-----------------------|-------|-----------------------|-------|
-----------------x--x--|-------|-----------------x--x--|-------|
--2----4----5----x--x--|-------|--2----4----5----x--x--|-------|
--2----4----5----x--x--|-------|--2----4----5----x--x--|-------|
--2----4----5----------|-------|--2----4----5----------|-------|


  Q    Q    Q    E  E     Q    E  E  Q    E  E     Q    Q    Q    E  E   
-----------------------|------------------------|-----------------------|
-----------------------|------------------------|-----------------------|
-----------------x--x--|-------x--x-------x--x--|-----------------x--x--|
--2----4----5----x--x--|-------x--x-------x--x--|--2----4----5----x--x--|
--2----4----5----x--x--|-------x--x-------x--x--|--2----4----5----x--x--|
--2----4----5----------|------------------------|--2----4----5----------|


  Q    E  E  Q    E  E     Q    Q    Q    E  E     Q    E  E  Q    E  E   
------------------------|-----------------------|------------------------|
------------------------|-----------------------|------------------------|
-------x--x-------x--x--|-----------------x--x--|-------x--x-------x--x--|
-------x--x-------x--x--|--2----4----5----x--x--|-------x--x-------x--x--|
-------x--x-------x--x--|--2----4----5----x--x--|-------x--x-------x--x--|
------------------------|--2----4----5----------|------------------------|


  Q    Q    Q    E  E     H        E  E  Q       Q    Q    E  E  E  E   
-----------------------|----------------------|------------------------|
-----------------------|----------------------|------------------------|
-----------------x-----|----------------------|------------------------|
--2----4----5----x--0--|--L-------------------|--2----2----2--5--0--2--|
--2----4----5----x--0--|--L-------------------|--2----2----2--5--0--2--|
--2----4----5-------0--|--L--------5--4--0----|--2----2----2--5--0--2--|


  Q    Q    E  E  E  E     Q    Q    E  E  Q       Q    Q    E  E  Q     
------------------------|-----------------------|-----------------------|
------------------------|-----------------------|-----------------------|
------------------------|-----------------------|-----------------------|
--L----2----2--5--0--2--|--L----2----2--5--5----|--0----0---------------|
--L----2----2--5--0--2--|--L----2----2--5--5----|--0----0---------------|
--L----2----2--5--0--2--|--L----2----2--5--5----|--0----0----5--4--0----|


  Q    Q    E  E  E  E     Q    Q    E  E  E  E     Q    Q    E  E  Q     
------------------------|------------------------|-----------------------|
------------------------|------------------------|-----------------------|
------------------------|------------------------|-----------------------|
--2----2----2--5--0--2--|--L----2----2--5--0--2--|--L----2----2--5--5----|
--2----2----2--5--0--2--|--L----2----2--5--0--2--|--L----2----2--5--5----|
--2----2----2--5--0--2--|--L----2----2--5--0--2--|--L----2----2--5--5----|


                               PM PM PM PM PM PM    PM PM PM PM PM          
  Q    Q    E  E  Q       Q    E  E  E  E  E  E     E  E  E  E  E  E  Q     
-----------------------|-------------------------|-------------------------|
-----------------------|-------------------------|-------------------------|
-----------------------|-------------------------|-------------------------|
--0----0---------------|--2----2--2--2--2--2--2--|--2--2--2--2--2--5--0----|
--0----0---------------|--2----2--2--2--2--2--2--|--2--2--2--2--2--5--0----|
--0----0----5--4--0----|--2----2--2--2--2--2--2--|--2--2--2--2--2--5--0----|


       PM PM PM PM PM PM                                PM PM PM PM PM PM  
  Q    E  E  E  E  E  E     H        E  E  Q       Q    E  E  E  E  E  E   
-------------------------|----------------------|-------------------------|
-------------------------|----------------------|-------------------------|
-------------------------|----------------------|-------------------------|
--2----2--2--2--2--2--2--|--0-------------------|--2----2--2--2--2--2--2--|
--2----2--2--2--2--2--2--|--0-------------------|--2----2--2--2--2--2--2--|
--2----2--2--2--2--2--2--|--0--------5--4--0----|--2----2--2--2--2--2--2--|


  PM PM PM PM PM                 PM PM PM PM PM PM                         
  E  E  E  E  E  E  Q       Q    E  E  E  E  E  E     H        E  E  Q     
-------------------------|-------------------------|----------------------|
-------------------------|-------------------------|----------------------|
-------------------------|-------------------------|----------------------|
--2--2--2--2--2--5--0----|--2----2--2--2--2--2--2--|--0-------------------|
--2--2--2--2--2--5--0----|--2----2--2--2--2--2--2--|--0-------------------|
--2--2--2--2--2--5--0----|--2----2--2--2--2--2--2--|--0--------5--4--0----|


  Q    Q    E  E  Q       Q    Q    E  E  Q       Q    Q    E  E  Q     
-----------------------|-----------------------|-----------------------|
-----------------------|-----------------------|-----------------------|
--2----2----2--5--5----|--2----2----2--5-------|--2----2----2--5--5----|
--2----2----2--5--5----|--2----2----2--5--5----|--2----2----2--5--5----|
--0----0----0--3--3----|--0----0----0--3--5----|--0----0----0--3--3----|
-----------------------|------------------5----|-----------------------|


  Q    Q    E  E  Q       Q    Q    E  E  Q       Q    Q    E  E  Q     
-----------------------|-----------------------|-----------------------|
-----------------------|-----------------------|-----------------------|
--2----2----2--5-------|--4----4----4--7--7----|--4----4----4--7-------|
--2----2----2--5--5----|--4----4----4--7--7----|--4----4----4--7--7----|
--0----0----0--3--5----|--2----2----2--5--5----|--2----2----2--5--7----|
------------------5----|-----------------------|------------------7----|


  Q    Q    E  E  Q       Q    Q    E  E  Q       H        E  E  E  E   
-----------------------|-----------------------|-----------------------|
-----------------------|-----------------------|-----------------------|
--4----4----4--7--7----|--4----4----4--7-------|-----------------------|
--4----4----4--7--7----|--4----4----4--7--7----|--2--------2--0--2--0--|
--2----2----2--5--5----|--2----2----2--5--7----|--2--------2--0--2--0--|
-----------------------|------------------7----|--2--------2--0--2--0--|


  H        E  E  Q       H        E  E  E  E     H        E  E  Q     
----------------------|-----------------------|----------------------|
----------------------|-----------------------|----------------------|
----------------------|--5--------5--2--5--7--|--L-------------------|
--L-------------------|--5--------5--2--5--7--|--L-------------------|
--L-------------------|--3--------3--0--3--5--|--L-------------------|
--L--------5--4--0----|-----------------------|-----------5--4--0----|


  H        E  E  E  E     H        E  E  Q       H        E  E  E  E   
-----------------------|----------------------|-----------------------|
-----------------------|----------------------|-----------------------|
-----------------------|----------------------|--5--------5--2--5--7--|
--2--------2--0--2--0--|--L-------------------|--5--------5--2--5--7--|
--2--------2--0--2--0--|--L-------------------|--3--------3--0--3--5--|
--2--------2--0--2--0--|--L--------5--4--0----|-----------------------|


  H        E  E  Q       Q    Q    Q    E  E     Q    E  E  Q    E  E   
----------------------|-----------------------|------------------------|
----------------------|-----------------------|------------------------|
--L-------------------|-----------------x--x--|-------x--x-------x--x--|
--L-------------------|--2----4----5----x--x--|-------x--x-------x--x--|
--L-------------------|--2----4----5----x--x--|-------x--x-------x--x--|
-----------5--4--0----|--2----4----5----------|------------------------|


                                                      PM PM PM PM PM PM  
  Q    Q    Q    E  E     H        E  E  Q       Q    E  E  E  E  E  E   
-----------------------|----------------------|-------------------------|
-----------------------|----------------------|-------------------------|
-----------------x-----|----------------------|-------------------------|
--2----4----5----x--0--|--L-------------------|--2----2--2--2--2--2--2--|
--2----4----5----x--0--|--L-------------------|--2----2--2--2--2--2--2--|
--2----4----5-------0--|--L--------5--4--0----|--2----2--2--2--2--2--2--|


  PM PM PM PM PM                 PM PM PM PM PM PM                         
  E  E  E  E  E  E  Q       Q    E  E  E  E  E  E     H        E  E  Q     
-------------------------|-------------------------|----------------------|
-------------------------|-------------------------|----------------------|
-------------------------|-------------------------|----------------------|
--2--2--2--2--2--5--0----|--2----2--2--2--2--2--2--|--0-------------------|
--2--2--2--2--2--5--0----|--2----2--2--2--2--2--2--|--0-------------------|
--2--2--2--2--2--5--0----|--2----2--2--2--2--2--2--|--0--------5--4--0----|


       PM PM PM PM PM PM    PM PM PM PM PM                 PM PM PM PM PM PM  
  Q    E  E  E  E  E  E     E  E  E  E  E  E  Q       Q    E  E  E  E  E  E   
-------------------------|-------------------------|-------------------------|
-------------------------|-------------------------|-------------------------|
-------------------------|-------------------------|-------------------------|
--2----2--2--2--2--2--2--|--2--2--2--2--2--5--0----|--2----2--2--2--2--2--2--|
--2----2--2--2--2--2--2--|--2--2--2--2--2--5--0----|--2----2--2--2--2--2--2--|
--2----2--2--2--2--2--2--|--2--2--2--2--2--5--0----|--2----2--2--2--2--2--2--|


  H        E  E  Q       Q    Q    E  E  Q       Q    Q    E  E  Q     
----------------------|-----------------------|-----------------------|
----------------------|-----------------------|-----------------------|
----------------------|--2----2----2--5--5----|--2----2----2--5-------|
--0-------------------|--2----2----2--5--5----|--2----2----2--5--5----|
--0-------------------|--0----0----0--3--3----|--0----0----0--3--5----|
--0--------5--4--0----|-----------------------|------------------5----|


  Q    Q    E  E  Q       Q    Q    E  E  Q       Q    Q    E  E  Q     
-----------------------|-----------------------|-----------------------|
-----------------------|-----------------------|-----------------------|
--2----2----2--5--5----|--2----2----2--5-------|--4----4----4--7--7----|
--2----2----2--5--5----|--2----2----2--5--5----|--4----4----4--7--7----|
--0----0----0--3--3----|--0----0----0--3--5----|--2----2----2--5--5----|
-----------------------|------------------5----|-----------------------|


  Q    Q    E  E  Q       Q    Q    E  E  Q       Q    Q    E  E  Q     
-----------------------|-----------------------|-----------------------|
-----------------------|-----------------------|-----------------------|
--4----4----4--7-------|--4----4----4--7--7----|--4----4----4--7-------|
--4----4----4--7--7----|--4----4----4--7--7----|--4----4----4--7--7----|
--2----2----2--5--7----|--2----2----2--5--5----|--2----2----2--5--7----|
------------------7----|-----------------------|------------------7----|


  H        E  E  E  E     H        E  E  Q       H        E  E  E  E   
-----------------------|----------------------|-----------------------|
-----------------------|----------------------|-----------------------|
-----------------------|----------------------|--5--------5--2--5--7--|
--2--------2--0--2--0--|--L-------------------|--5--------5--2--5--7--|
--2--------2--0--2--0--|--L-------------------|--3--------3--0--3--5--|
--2--------2--0--2--0--|--L--------5--4--0----|-----------------------|


  H        E  E  Q       H        E  E  E  E     H        E  E  Q     
----------------------|-----------------------|----------------------|
----------------------|-----------------------|----------------------|
--L-------------------|-----------------------|----------------------|
--L-------------------|--2--------2--0--2--0--|--L-------------------|
--L-------------------|--2--------2--0--2--0--|--L-------------------|
-----------5--4--0----|--2--------2--0--2--0--|--L--------5--4--0----|


  H        E  E  E  E     H        E  E  Q       Q    Q    Q    E  E   
-----------------------|----------------------|-----------------------|
-----------------------|----------------------|-----------------------|
--5--------5--2--5--7--|--L-------------------|-----------------x--x--|
--5--------5--2--5--7--|--L-------------------|--2----4----5----x--x--|
--3--------3--0--3--5--|--L-------------------|--2----4----5----x--x--|
-----------------------|-----------5--4--0----|--2----4----5----------|


  Q    E  E  Q    E  E     Q    Q    Q    E  E     H        E  E  Q     
------------------------|-----------------------|----------------------|
------------------------|-----------------------|----------------------|
-------x--x-------x--x--|-----------------x-----|----------------------|
-------x--x-------x--x--|--2----4----5----x--0--|--L-------------------|
-------x--x-------x--x--|--2----4----5----x--0--|--L-------------------|
------------------------|--2----4----5-------0--|--L--------5--4--0----|


  Q    Q    Q    Q       Q    Q    Q    Q       Q    Q    Q    Q     
----------------------|----------------------|----------------------|
----------------------|----------------------|----------------------|
----------------------|------------4----4----|----------------------|
--2----2----2----2----|--0----0----4----4----|--2----2----2----2----|
--2----2----2----2----|--0----0----2----2----|--2----2----2----2----|
--2----2----2----2----|--0----0--------------|--2----2----2----2----|


  Q    Q    Q    Q       Q    Q    Q    Q       Q    Q    Q    Q     
----------------------|----------------------|----------------------|
----------------------|----------------------|----------------------|
------------4----4----|----------------------|--2----2----7----7----|
--0----0----4----4----|--2----2----2----2----|--2----2----4----4----|
--0----0----2----2----|--2----2----2----2----|--0----0----4----4----|
--0----0--------------|--2----2----2----2----|------------4----4----|


                                                     PM PM PM PM PM PM  
  Q    Q    Q    Q       Q    Q    Q    Q       Q    E  E  E  E  E  E   
----------------------|----------------------|-------------------------|
----------------------|----------------------|-------------------------|
----------------------|--4----4----4----4----|-------------------------|
--5----5----4----4----|--4----4----4----4----|--2----2--2--2--2--2--2--|
--5----5----4----4----|--2----2----2----2----|--2----2--2--2--2--2--2--|
--5----5----4----4----|----------------------|--2----2--2--2--2--2--2--|


  PM PM PM PM PM PM PM PM    PM PM PM PM PM PM PM PM  
  E  E  E  E  E  E  E  E     E  E  E  E  E  E  E  E   
--------------------------|--------------------------|
--------------------------|--------------------------|
--4--4--4--4--4--4--4--4--|--2--2--2--2--2--2--2--2--|
--4--4--4--4--4--4--4--4--|--2--2--2--2--2--2--2--2--|
--2--2--2--2--2--2--2--2--|--0--0--0--0--0--0--0--0--|
--------------------------|--------------------------|


  PM PM PM PM PM PM PM PM    PM PM PM PM PM PM PM PM  
  E  E  E  E  E  E  E  E     E  E  E  E  E  E  E  E   
--------------------------|--------------------------|
--------------------------|--------------------------|
--------------------------|--4--4--4--4--4--4--4--4--|
--2--2--2--2--2--2--2--2--|--4--4--4--4--4--4--4--4--|
--2--2--2--2--2--2--2--2--|--2--2--2--2--2--2--2--2--|
--2--2--2--2--2--2--2--2--|--------------------------|


  PM PM PM PM PM PM PM PM    PM PM PM PM PM PM PM PM                         
  E  E  E  E  E  E  E  E     E  E  E  E  E  E  E  E     H        E  E  Q     
--------------------------|--------------------------|----------------------|
--------------------------|--------------------------|----------------------|
--------------------------|--4--4--4--4--4--4--4--4--|--4-------------------|
--2--2--2--2--2--2--2--2--|--4--4--4--4--4--4--4--4--|--4-------------------|
--2--2--2--2--2--2--2--2--|--2--2--2--2--2--2--2--2--|--2-------------------|
--2--2--2--2--2--2--2--2--|--------------------------|-----------5--4--0----|


       PM PM PM PM PM PM    PM PM PM PM PM PM PM PM    PM PM PM PM PM PM PM PM  
  Q    E  E  E  E  E  E     E  E  E  E  E  E  E  E     E  E  E  E  E  E  E  E   
-------------------------|--------------------------|--------------------------|
-------------------------|--------------------------|--------------------------|
-------------------------|--4--4--4--4--4--4--4--4--|--2--2--2--2--2--2--2--2--|
--2----2--2--2--2--2--2--|--4--4--4--4--4--4--4--4--|--2--2--2--2--2--2--2--2--|
--2----2--2--2--2--2--2--|--2--2--2--2--2--2--2--2--|--0--0--0--0--0--0--0--0--|
--2----2--2--2--2--2--2--|--------------------------|--------------------------|


  PM PM PM PM PM PM PM PM    PM PM PM PM PM PM PM PM  
  E  E  E  E  E  E  E  E     E  E  E  E  E  E  E  E   
--------------------------|--------------------------|
--------------------------|--------------------------|
--------------------------|--4--4--4--4--4--4--4--4--|
--2--2--2--2--2--2--2--2--|--4--4--4--4--4--4--4--4--|
--2--2--2--2--2--2--2--2--|--2--2--2--2--2--2--2--2--|
--2--2--2--2--2--2--2--2--|--------------------------|


  PM PM PM PM PM PM PM PM                                            
  E  E  E  E  E  E  E  E     H        H           H        H         
--------------------------|--------------------|--------------------|
--------------------------|--------------------|--------------------|
--------------------------|--4--------5--------|--4--------4--------|
--2--2--2--2--2--2--2--2--|--1--------4--------|--4--------4--------|
--2--2--2--2--2--2--2--2--|--1--------4--------|--2--------2--------|
--2--2--2--2--2--2--2--2--|--1--------4--------|--------------------|


  W                   W                   W                   W                 
-------------------|-------------------|-------------------|-------------------|
-------------------|-------------------|-------------------|-------------------|
-------------------|-------------------|-------------------|-------------------|
--2----------------|--L----------------|--L----------------|--L----------------|
--2----------------|--L----------------|--L----------------|--L----------------|
--2----------------|--L----------------|--L----------------|--L----------------|


  Q    Q    Q    E  E     Q    E  E  Q    E  E     Q    Q    Q    E  E   
-----------------------|------------------------|-----------------------|
-----------------------|------------------------|-----------------------|
-----------------x--x--|-------x--x-------x--x--|-----------------x--x--|
--2----4----5----x--x--|-------x--x-------x--x--|--2----4----5----x--x--|
--2----4----5----x--x--|-------x--x-------x--x--|--2----4----5----x--x--|
--2----4----5----------|------------------------|--2----4----5----------|


  Q    E  E  Q    E  E     Q    Q    Q    E  E     Q    E  E  Q    E  E   
------------------------|-----------------------|------------------------|
------------------------|-----------------------|------------------------|
-------x--x-------x--x--|-----------------x--x--|-------x--x-------x--x--|
-------x--x-------x--x--|--2----4----5----x--x--|-------x--x-------x--x--|
-------x--x-------x--x--|--2----4----5----x--x--|-------x--x-------x--x--|
------------------------|--2----4----5----------|------------------------|


                                              PM PM PM PM PM PM PM PM  
  Q    Q    Q    E  E     W                   E  E  E  E  E  E  E  E   
-----------------------|-------------------|--------------------------|
-----------------------|-------------------|--------------------------|
-----------------x-----|-------------------|--------------------------|
--2----4----5----x--0--|--L----------------|--0--0--0--0--0--0--0--0--|
--2----4----5----x--0--|--L----------------|--0--0--0--0--0--0--0--0--|
--2----4----5-------0--|--L----------------|--0--0--0--0--0--0--0--0--|


  H        E  E  E  E     H        E  E  Q       H        E  E  E  E   
-----------------------|----------------------|-----------------------|
-----------------------|----------------------|-----------------------|
-----------------------|----------------------|--5--------5--2--5--7--|
--2--------2--0--2--0--|--L-------------------|--5--------5--2--5--7--|
--2--------2--0--2--0--|--L-------------------|--3--------3--0--3--5--|
--2--------2--0--2--0--|--L--------5--4--0----|-----------------------|


  H        E  E  Q       H        E  E  E  E     H        E  E  Q     
----------------------|-----------------------|----------------------|
----------------------|-----------------------|----------------------|
--L-------------------|-----------------------|----------------------|
--L-------------------|--2--------2--0--2--0--|--L-------------------|
--L-------------------|--2--------2--0--2--0--|--L-------------------|
-----------5--4--0----|--2--------2--0--2--0--|--L--------5--4--0----|


  H        E  E  E  E     H        E  E  Q       H        E  E  E  E   
-----------------------|----------------------|-----------------------|
-----------------------|----------------------|-----------------------|
--5--------5--2--5--7--|--L-------------------|-----------------------|
--5--------5--2--5--7--|--L-------------------|--2--------2--0--2--0--|
--3--------3--0--3--5--|--L-------------------|--2--------2--0--2--0--|
-----------------------|-----------5--4--0----|--2--------2--0--2--0--|


  H        E  E  Q       H        E  E  E  E     H        E  E  Q     
----------------------|-----------------------|----------------------|
----------------------|-----------------------|----------------------|
----------------------|--5--------5--2--5--7--|--L-------------------|
--L-------------------|--5--------5--2--5--7--|--L-------------------|
--L-------------------|--3--------3--0--3--5--|--L-------------------|
--L--------5--4--0----|-----------------------|-----------5--4--0----|


  H        E  E  E  E     H        E  E  Q       H        E  E  E  E   
-----------------------|----------------------|-----------------------|
-----------------------|----------------------|-----------------------|
-----------------------|----------------------|--5--------5--2--5--7--|
--2--------2--0--2--0--|--L-------------------|--5--------5--2--5--7--|
--2--------2--0--2--0--|--L-------------------|--3--------3--0--3--5--|
--2--------2--0--2--0--|--L--------5--4--0----|-----------------------|


  H        E  E  Q       Q    Q    Q    E  E     Q    E  E  Q    E  E   
----------------------|-----------------------|------------------------|
----------------------|-----------------------|------------------------|
--L-------------------|-----------------x--x--|-------x--x-------x--x--|
--L-------------------|--2----4----5----x--x--|-------x--x-------x--x--|
--L-------------------|--2----4----5----x--x--|-------x--x-------x--x--|
-----------5--4--0----|--2----4----5----------|------------------------|


  Q    Q    Q    E  E     W                   W                 
-----------------------|-------------------|-------------------|
-----------------------|-------------------|-------------------|
-----------------x-----|-------------------|-------------------|
--2----4----5----x--0--|--L----------------|--L----------------|
--2----4----5----x--0--|--L----------------|--L----------------|
--2----4----5-------0--|--L----------------|--L----------------|


  W                  
-------------------||
-------------------||
-------------------||
--L----------------||
--L----------------||
--L----------------||


Guitar 2


       T      T      T      T      T    T    
       S S S  S S S  S S S  S S S  S S  S S  
D#||--12-0-7-14-0-7-15-0-7-14-0-7-14-0-19-0-|
A#||----------------------------------------|
F#||----------------------------------------|
C#||----------------------------------------|
G#||----------------------------------------|
C#||----------------------------------------|


   T      T      T      T      T    T    
   S S S  S S S  S S S  S S S  S S  S S  
--12-0-7-14-0-7-15-0-7-14-0-7-14-0-19-0-|
----------------------------------------|
----------------------------------------|
----------------------------------------|
----------------------------------------|
----------------------------------------|


   T      T      T      T      T    T    
   S S S  S S S  S S S  S S S  S S  S S  
--12-0-7-14-0-7-15-0-7-14-0-7-14-0-19-0-|
----------------------------------------|
----------------------------------------|
----------------------------------------|
----------------------------------------|
----------------------------------------|


   T       T       T       T       T       T  
   S S  S  S S  S  S S  S  S S  S  S S  S  S  
--17-0-10-17-0-10-15-0-10-15-0-10-14-0-10-14-|
---------------------------------------------|
---------------------------------------------|
---------------------------------------------|
---------------------------------------------|
---------------------------------------------|


   T      T      T      T      T    T    
   S S S  S S S  S S S  S S S  S S  S S  
--12-0-7-14-0-7-15-0-7-14-0-7-14-0-19-0-|
----------------------------------------|
----------------------------------------|
----------------------------------------|
----------------------------------------|
----------------------------------------|


   T      T      T      T      T    T    
   S S S  S S S  S S S  S S S  S S  S S  
--12-0-7-14-0-7-15-0-7-14-0-7-14-0-19-0-|
----------------------------------------|
----------------------------------------|
----------------------------------------|
----------------------------------------|
----------------------------------------|


   T      T      T      T      T    T    
   S S S  S S S  S S S  S S S  S S  S S  
--12-0-7-14-0-7-15-0-7-14-0-7-14-0-19-0-|
----------------------------------------|
----------------------------------------|
----------------------------------------|
----------------------------------------|
----------------------------------------|


   T       T       T       T       T       T  
   S S  S  S S  S  S S  S  S S  S  S S  S  S  
--17-0-10-17-0-10-15-0-10-15-0-10-14-0-10-14-|
---------------------------------------------|
---------------------------------------------|
---------------------------------------------|
---------------------------------------------|
---------------------------------------------|


   T      T      T      T      T    T    
   S S S  S S S  S S S  S S S  S S  S S  
--12-0-7-14-0-7-15-0-7-14-0-7-14-0-19-0-|
----------------------------------------|
----------------------------------------|
----------------------------------------|
----------------------------------------|
----------------------------------------|


   T      T      T      T      T    T    
   S S S  S S S  S S S  S S S  S S  S S  
--12-0-7-14-0-7-15-0-7-14-0-7-14-0-19-0-|
----------------------------------------|
----------------------------------------|
----------------------------------------|
----------------------------------------|
----------------------------------------|


   T      T      T      T      T    T    
   S S S  S S S  S S S  S S S  S S  S S  
--12-0-7-14-0-7-15-0-7-14-0-7-14-0-19-0-|
----------------------------------------|
----------------------------------------|
----------------------------------------|
----------------------------------------|
----------------------------------------|


   T       T       T       T       T       T  
   S S  S  S S  S  S S  S  S S  S  S S  S  S  
--17-0-10-17-0-10-15-0-10-15-0-10-14-0-10-14-|
---------------------------------------------|
---------------------------------------------|
---------------------------------------------|
---------------------------------------------|
---------------------------------------------|


   T      T      T      T      T    T    
   S S S  S S S  S S S  S S S  S S  S S  
--12-0-7-14-0-7-15-0-7-14-0-7-14-0-19-0-|
----------------------------------------|
----------------------------------------|
----------------------------------------|
----------------------------------------|
----------------------------------------|


   T      T      T      T      T    T    
   S S S  S S S  S S S  S S S  S S  S S  
--12-0-7-14-0-7-15-0-7-14-0-7-14-0-19-0-|
----------------------------------------|
----------------------------------------|
----------------------------------------|
----------------------------------------|
----------------------------------------|


   T      T      T      T      T    T    
   S S S  S S S  S S S  S S S  S S  S S  
--12-0-7-14-0-7-15-0-7-14-0-7-14-0-19-0-|
----------------------------------------|
----------------------------------------|
----------------------------------------|
----------------------------------------|
----------------------------------------|


   T       T       T       T       T       T  
   S S  S  S S  S  S S  S  S S  S  S S  S  S  
--17-0-10-17-0-10-15-0-10-15-0-10-14-0-10-14-|
---------------------------------------------|
---------------------------------------------|
---------------------------------------------|
---------------------------------------------|
---------------------------------------------|


   T      T      T      T      T    T    
   S S S  S S S  S S S  S S S  S S  S S  
--12-0-7-14-0-7-15-0-7-14-0-7-14-0-19-0-|
----------------------------------------|
----------------------------------------|
----------------------------------------|
----------------------------------------|
----------------------------------------|


   T      T      T      T      T    T    
   S S S  S S S  S S S  S S S  S S  S S  
--12-0-7-14-0-7-15-0-7-14-0-7-14-0-19-0-|
----------------------------------------|
----------------------------------------|
----------------------------------------|
----------------------------------------|
----------------------------------------|


   T      T      T      T      T    T    
   S S S  S S S  S S S  S S S  S S  S S  
--12-0-7-14-0-7-15-0-7-14-0-7-14-0-19-0-|
----------------------------------------|
----------------------------------------|
----------------------------------------|
----------------------------------------|
----------------------------------------|


   T       T       T       T       T       T  
   S S  S  S S  S  S S  S  S S  S  S S  S  S  
--17-0-10-17-0-10-15-0-10-15-0-10-14-0-10-14-|
---------------------------------------------|
---------------------------------------------|
---------------------------------------------|
---------------------------------------------|
---------------------------------------------|


   T      T      T      T      T    T    
   S S S  S S S  S S S  S S S  S S  S S  
--12-0-7-14-0-7-15-0-7-14-0-7-14-0-19-0-|
----------------------------------------|
----------------------------------------|
----------------------------------------|
----------------------------------------|
----------------------------------------|


   T      T      T      T      T    T    
   S S S  S S S  S S S  S S S  S S  S S  
--12-0-7-14-0-7-15-0-7-14-0-7-14-0-19-0-|
----------------------------------------|
----------------------------------------|
----------------------------------------|
----------------------------------------|
----------------------------------------|


   T      T      T      T      T    T    
   S S S  S S S  S S S  S S S  S S  S S  
--12-0-7-14-0-7-15-0-7-14-0-7-14-0-19-0-|
----------------------------------------|
----------------------------------------|
----------------------------------------|
----------------------------------------|
----------------------------------------|


   T       T       T       T       T       T  
   S S  S  S S  S  S S  S  S S  S  S S  S  S  
--17-0-10-17-0-10-15-0-10-15-0-10-14-0-10-14-|
---------------------------------------------|
---------------------------------------------|
---------------------------------------------|
---------------------------------------------|
---------------------------------------------|


  S S S S S S S S S S S S S S S S    S S S S S S S S S S S S S S S S  
----------------------------------|----------------------------------|
--5-8-5-0-5-8-5-0-5-8-5-0-3-5-3-0-|--5-8-5-0-5-8-5-0-5-8-5-0-3-5-3-0-|
----------------------------------|----------------------------------|
----------------------------------|----------------------------------|
----------------------------------|----------------------------------|
----------------------------------|----------------------------------|


  S S S S S S S S S S S S S S S S    S S S S S S S S S S S S S S S S  
----------------------------------|----------------------------------|
--5-8-5-0-5-8-5-0-5-8-5-0-3-5-3-0-|--3-5-3-0-3-5-3-0-3-5-3-0-3-5-3-0-|
----------------------------------|----------------------------------|
----------------------------------|----------------------------------|
----------------------------------|----------------------------------|
----------------------------------|----------------------------------|


  S S S S S S S S S S S S S S S S    S S S S S S S S S S S S S S S S  
----------------------------------|----------------------------------|
--5-8-5-0-5-8-5-0-5-8-5-0-3-5-3-0-|--5-8-5-0-5-8-5-0-5-8-5-0-3-5-3-0-|
----------------------------------|----------------------------------|
----------------------------------|----------------------------------|
----------------------------------|----------------------------------|
----------------------------------|----------------------------------|


  S S S S S S S S S S S S S S S S    S S S S S S S S S S S S S S S S  
----------------------------------|----------------------------------|
--5-8-5-0-5-8-5-0-5-8-5-0-3-5-3-0-|--3-5-3-0-3-5-3-0-3-5-3-0-3-5-3-0-|
----------------------------------|----------------------------------|
----------------------------------|----------------------------------|
----------------------------------|----------------------------------|
----------------------------------|----------------------------------|


  S S S S S S S S S S S S S S S S    S S S S S S S S S S S S S S S S  
----------------------------------|----------------------------------|
--5-8-5-0-5-8-5-0-3-5-3-0-3-5-3-0-|--5-8-5-0-5-8-5-0-3-5-3-0-3-5-3-0-|
----------------------------------|----------------------------------|
----------------------------------|----------------------------------|
----------------------------------|----------------------------------|
----------------------------------|----------------------------------|


  S S S S S S S S S  S S S S  S S S    S S S S S S S S S S S S S S S S  
------------------------------------|----------------------------------|
--5-8-5-0-5-8-5-0-8-10-8-0-8-10-8-0-|--3-5-3-0-3-5-3-0-----------------|
------------------------------------|------------------2-4-2-0-2-4-2-0-|
------------------------------------|----------------------------------|
------------------------------------|----------------------------------|
------------------------------------|----------------------------------|


  S S S S S S S S S S S S S S S S    S S S S S S S S S S S S S S S S  
----------------------------------|----------------------------------|
--5-8-5-0-5-8-5-0-3-5-3-0-3-5-3-0-|--5-8-5-0-5-8-5-0-3-5-3-0-3-5-3-0-|
----------------------------------|----------------------------------|
----------------------------------|----------------------------------|
----------------------------------|----------------------------------|
----------------------------------|----------------------------------|


  S S S S S S S S S  S S S S  S S S    S S S S S S S S S S S S S S S S  
------------------------------------|----------------------------------|
--5-8-5-0-5-8-5-0-8-10-8-0-8-10-8-0-|--3-5-3-0-3-5-3-0-----------------|
------------------------------------|------------------2-4-2-0-2-4-2-0-|
------------------------------------|----------------------------------|
------------------------------------|----------------------------------|
------------------------------------|----------------------------------|


   S  S  S  S  S  S  S  S  S  S  S S S  S S S  
----------------------------------------------|
--10-13-10----10-13-10----10-13-10-0-8-10-8-0-|
-----------12----------12---------------------|
----------------------------------------------|
----------------------------------------------|
----------------------------------------------|


   S  S  S  S  S  S  S  S  S  S  S S S  S S S  
----------------------------------------------|
--10-13-10----10-13-10----10-13-10-0-8-10-8-0-|
-----------12----------12---------------------|
----------------------------------------------|
----------------------------------------------|
----------------------------------------------|


   S  S  S  S  S  S  S  S  S  S  S S S  S S S  
----------------------------------------------|
--10-13-10----10-13-10----10-13-10-0-8-10-8-0-|
-----------12----------12---------------------|
----------------------------------------------|
----------------------------------------------|
----------------------------------------------|


   S  S  S  S  S  S  S  S  S  S  S S S  S S S  
----------------------------------------------|
--10-13-10----10-13-10----10-13-10-0-8-10-8-0-|
-----------12----------12---------------------|
----------------------------------------------|
----------------------------------------------|
----------------------------------------------|


   S  S  S  S  S  S  S  S  S  S  S  S  S  S  S  S  
--------------------------------------------------|
--12-15-12----12-15-12----12-15-12----10-12-10----|
-----------14----------14----------14----------12-|
--------------------------------------------------|
--------------------------------------------------|
--------------------------------------------------|


   S  S  S  S  S  S  S  S  S  S  S  S  S  S  S  S  
--------------------------------------------------|
--12-15-12----12-15-12----12-15-12----10-12-10----|
-----------14----------14----------14----------12-|
--------------------------------------------------|
--------------------------------------------------|
--------------------------------------------------|


   S  S  S  S  S  S  S  S  S  S  S  S  S  S  S  S  
--------------------------------------------------|
--12-15-12----12-15-12----12-15-12----10-12-10----|
-----------14----------14----------14----------12-|
--------------------------------------------------|
--------------------------------------------------|
--------------------------------------------------|


   S  S  S  S  S  S  S  S  S  S  S  S  S  S  S  S    Q    E  E  E  E  E  E   
--------------------------------------------------|-------------------------|
--12-15-12----12-15-12----12-15-12----10-12-10----|-------8--5--7--8--8--7--|
-----------14----------14----------14----------12-|-------------------------|
--------------------------------------------------|-------------------------|
--------------------------------------------------|-------------------------|
--------------------------------------------------|-------------------------|


  H        Q     Q       Q    E  E  E  E  E  E     H        Q    E  E    
----------------------|-------------------------|-----------------------|
--L--------L\---------|-------8--5--7--8--8--7--|--L--------3----L--L\--|
----------------------|-------------------------|-----------------------|
----------------------|-------------------------|-----------------------|
----------------------|-------------------------|-----------------------|
----------------------|-------------------------|-----------------------|


  Q    E  E  E  E  E  E     H        Q     Q       Q    E  E  E  E  E  E   
-------------------------|----------------------|-------------------------|
-------8--5--7--8--8--7--|--L--------L\---------|-------8--5--7--8--8--7--|
-------------------------|----------------------|-------------------------|
-------------------------|----------------------|-------------------------|
-------------------------|----------------------|-------------------------|
-------------------------|----------------------|-------------------------|


  H        Q    E  E      S S S S S S S S S S S S S S S S  
-----------------------|----------------------------------|
--L--------3----L--L\--|--5-0-0-7-0-0-8-0-0-7-0-0-7-0-----|
-----------------------|------------------------------4-0-|
-----------------------|----------------------------------|
-----------------------|----------------------------------|
-----------------------|----------------------------------|


  S S S S S S S S S S S S S S S S    S S S S S S S S S S S S S S S S  
----------------------------------|----------------------------------|
--5-0-0-7-0-0-8-0-0-7-0-0-7-0-----|--5-0-0-7-0-0-8-0-0-7-0-0-7-0-----|
------------------------------4-0-|------------------------------4-2-|
----------------------------------|----------------------------------|
----------------------------------|----------------------------------|
----------------------------------|----------------------------------|


  S S S S S S S S S S S S S S S S    S S S S S S S S S S S S S S S S  
----------------------------------|----------------------------------|
----------------------------------|--5-8-5-0-5-8-5-0-3-5-3-0-3-5-3-0-|
--0-4-2-0-4-2-0-4-2-0-4-2-0-4-2-0-|----------------------------------|
----------------------------------|----------------------------------|
----------------------------------|----------------------------------|
----------------------------------|----------------------------------|


  S S S S S S S S S S S S S S S S    S S S S S S S S S  S S S S  S S S  
----------------------------------|------------------------------------|
--5-8-5-0-5-8-5-0-3-5-3-0-3-5-3-0-|--5-8-5-0-5-8-5-0-8-10-8-0-8-10-8-0-|
----------------------------------|------------------------------------|
----------------------------------|------------------------------------|
----------------------------------|------------------------------------|
----------------------------------|------------------------------------|


  S S S S S S S S S S S S S S S S    S S S S S S S S S S S S S S S S  
----------------------------------|----------------------------------|
--3-5-3-0-3-5-3-0-----------------|--5-8-5-0-5-8-5-0-3-5-3-0-3-5-3-0-|
------------------2-4-2-0-2-4-2-0-|----------------------------------|
----------------------------------|----------------------------------|
----------------------------------|----------------------------------|
----------------------------------|----------------------------------|


  S S S S S S S S S S S S S S S S    S S S S S S S S S  S S S S  S S S  
----------------------------------|------------------------------------|
--5-8-5-0-5-8-5-0-3-5-3-0-3-5-3-0-|--5-8-5-0-5-8-5-0-8-10-8-0-8-10-8-0-|
----------------------------------|------------------------------------|
----------------------------------|------------------------------------|
----------------------------------|------------------------------------|
----------------------------------|------------------------------------|


  S S S S S S S S S S S S S S S S  
----------------------------------|
--3-5-3-0-3-5-3-0-----------------|
------------------2-4-2-0-2-4-2-0-|
----------------------------------|
----------------------------------|
----------------------------------|


   S  S  S  S  S  S  S  S  S  S  S S S  S S S  
----------------------------------------------|
--10-13-10----10-13-10----10-13-10-0-8-10-8-0-|
-----------12----------12---------------------|
----------------------------------------------|
----------------------------------------------|
----------------------------------------------|


   S  S  S  S  S  S  S  S  S  S  S S S  S S S  
----------------------------------------------|
--10-13-10----10-13-10----10-13-10-0-8-10-8-0-|
-----------12----------12---------------------|
----------------------------------------------|
----------------------------------------------|
----------------------------------------------|


   S  S  S  S  S  S  S  S  S  S  S S S  S S S  
----------------------------------------------|
--10-13-10----10-13-10----10-13-10-0-8-10-8-0-|
-----------12----------12---------------------|
----------------------------------------------|
----------------------------------------------|
----------------------------------------------|


   S  S  S  S  S  S  S  S  S  S  S S S  S S S  
----------------------------------------------|
--10-13-10----10-13-10----10-13-10-0-8-10-8-0-|
-----------12----------12---------------------|
----------------------------------------------|
----------------------------------------------|
----------------------------------------------|


   S  S  S  S  S  S  S  S  S  S  S  S  S  S  S  S  
--------------------------------------------------|
--12-15-12----12-15-12----12-15-12----10-12-10----|
-----------14----------14----------14----------12-|
--------------------------------------------------|
--------------------------------------------------|
--------------------------------------------------|


   S  S  S  S  S  S  S  S  S  S  S  S  S  S  S  S  
--------------------------------------------------|
--12-15-12----12-15-12----12-15-12----10-12-10----|
-----------14----------14----------14----------12-|
--------------------------------------------------|
--------------------------------------------------|
--------------------------------------------------|


   S  S  S  S  S  S  S  S  S  S  S  S  S  S  S  S  
--------------------------------------------------|
--12-15-12----12-15-12----12-15-12----10-12-10----|
-----------14----------14----------14----------12-|
--------------------------------------------------|
--------------------------------------------------|
--------------------------------------------------|


   S  S  S  S  S  S  S  S  S  S  S  S  S  S  S  S    Q    E  E  E  E  E  E   
--------------------------------------------------|-------------------------|
--12-15-12----12-15-12----12-15-12----10-12-10----|-------8--5--7--8--8--7--|
-----------14----------14----------14----------12-|-------------------------|
--------------------------------------------------|-------------------------|
--------------------------------------------------|-------------------------|
--------------------------------------------------|-------------------------|


  H        Q     Q       Q    E  E  E  E  E  E     H        Q    E  E    
----------------------|-------------------------|-----------------------|
--L--------L\---------|-------8--5--7--8--8--7--|--L--------3----L--L\--|
----------------------|-------------------------|-----------------------|
----------------------|-------------------------|-----------------------|
----------------------|-------------------------|-----------------------|
----------------------|-------------------------|-----------------------|


  Q    E  E  E  E  E  E     H        Q     Q       Q    E  E  E  E  E  E   
-------------------------|----------------------|-------------------------|
-------8--5--7--8--8--7--|--L--------L\---------|-------8--5--7--8--8--7--|
-------------------------|----------------------|-------------------------|
-------------------------|----------------------|-------------------------|
-------------------------|----------------------|-------------------------|
-------------------------|----------------------|-------------------------|


  H        Q    E  E      S S S S S S S S S S S S S S S S  
-----------------------|----------------------------------|
--L--------3----L--L\--|--5-0-0-7-0-0-8-0-0-7-0-0-7-0-----|
-----------------------|------------------------------4-0-|
-----------------------|----------------------------------|
-----------------------|----------------------------------|
-----------------------|----------------------------------|


  S S S S S S S S S S S S S S S S    S S S S S S S S S S S S S S S S  
----------------------------------|----------------------------------|
--5-0-0-7-0-0-8-0-0-7-0-0-7-0-----|--5-0-0-7-0-0-8-0-0-7-0-0-7-0-----|
------------------------------4-0-|------------------------------4-2-|
----------------------------------|----------------------------------|
----------------------------------|----------------------------------|
----------------------------------|----------------------------------|


  S S S S S S S S S S S S S S S S    S S S S S S S S S S S S S S S S  
----------------------------------|----------------------------------|
----------------------------------|--5-8-5-0-5-8-5-0-5-8-5-0-5-8-5-0-|
--0-4-2-0-4-2-0-4-2-0-4-2-0-4-2-0-|----------------------------------|
----------------------------------|----------------------------------|
----------------------------------|----------------------------------|
----------------------------------|----------------------------------|


  S  S S S S  S S S S S S S S S S S    S S S S S S S S S S S S S S S S  
------------------------------------|----------------------------------|
--7-10-7-0-7-10-7-0-4-7-4-0-4-7-4-0-|--5-8-5-0-5-8-5-0-5-8-5-0-5-8-5-0-|
------------------------------------|----------------------------------|
------------------------------------|----------------------------------|
------------------------------------|----------------------------------|
------------------------------------|----------------------------------|


  S  S S S S  S S S S S S S S S S S    S S S S S S S S S S S S S S S S  
------------------------------------|----------------------------------|
--7-10-7-0-7-10-7-0-4-7-4-0-4-7-4-0-|--5-8-5-0-5-8-5-0-5-8-5-0-5-8-5-0-|
------------------------------------|----------------------------------|
------------------------------------|----------------------------------|
------------------------------------|----------------------------------|
------------------------------------|----------------------------------|


   S  S  S S  S  S  S S S  S S S S  S S S  
------------------------------------------|
--10-13-10-0-10-13-10-0-7-10-7-0-7-10-7-0-|
------------------------------------------|
------------------------------------------|
------------------------------------------|
------------------------------------------|


  S  S S S S  S S S S  S S S S  S S S     W                 
--------------------------------------|--------------------|
--8-12-8-0-8-12-8-0-7-11-7-0-7-11-7-0-|--12----------------|
--------------------------------------|--------------------|
--------------------------------------|--------------------|
--------------------------------------|--------------------|
--------------------------------------|--------------------|


   Q    E  S S  Q    Q       Q    E  S  S  S   E  S  Q     
--------------------------|-------------------------------|
--------------------------|------------------/13--L-12----|
---------------11----9----|--8----L--9-11-11--------------|
--/9----L--7-9------------|-------------------------------|
--------------------------|-------------------------------|
--------------------------|-------------------------------|


                                              |---3---|                  
   Q    E   S  S  Q    E   S  S     Q     E   S   S   S   E    Q     E   
--------------------------------|--11b----L--11b-11b-11b-11b--11b----L--|
--10----L--12-13-10----L--12-13-|---------------------------------------|
--------------------------------|---------------------------------------|
--------------------------------|---------------------------------------|
--------------------------------|---------------------------------------|
--------------------------------|---------------------------------------|


    Q    E   S  S  Q    E   S  S     Q    E   S  S  H         
--/11----L--12-14-11----L--12-14-|--19----L--17-15-----------|
---------------------------------|-----------------17--------|
---------------------------------|---------------------------|
---------------------------------|---------------------------|
---------------------------------|---------------------------|
---------------------------------|---------------------------|


    E  S  E  S  S S  E  S  E  S  S S     H        Q    Q      
--/19----20----17---19----20----17---|--19--------L----------|
-------------------------------------|-----------------------|
-------------------------------------|-----------------------|
-------------------------------------|-----------------------|
-------------------------------------|-----------------0S----|
-------------------------------------|-----------------------|


                       |--3--|               
  S S  S S S  S  S  S  S  S  S E   S S  S S  
----------------------12-14-15-L--14---12---|
-------------------12-----------------------|
-----------9-11-12--------------------------|
---------9----------------------------------|
--7-9-10------------------------------------|
--------------------------------------------|


      |--3--|  |--3--|                     
   S  S  S  S  S  S  S  S  S  S  H         
--11-14-12-11-----------------------------|
--------------12--------------------------|
-----------------11-14-12-11--------------|
-----------------------------14-13--------|
------------------------------------------|
------------------------------------------|


   3  3              |--3--|              |--3--|              |--3--|          
   S  S  T  T  T  T  S  S  S  T  T  T  T  S  S  S  T  T  T  T  S  S  S  T  T  T 
--------12-17-17-12----------12-16-16-12----------12-15-15-12----------12-14-14-
-----13-------------13----13-------------13----13-------------13----13----------
--14-------------------14-------------------14-------------------14-------------
--------------------------------------------------------------------------------
--------------------------------------------------------------------------------
--------------------------------------------------------------------------------


   |--3--|  |--3--|  |--3-|  |--3--|             
   S  S  S  S  S  S  S S  S  S  S  S Q    Q      
--14-15-14-12-----------------------------------|
------------------------------------------------|
--------------14-12-11-9-11-12-11---------------|
------------------------------------------------|
----------------------------------10-7----L\----|
------------------------------------------------|


  S S S S S S S S S S S S  S  S  S  S     S  S  S  S S S  S S Q    E  E   
-----------------------------------11-|--12------------------------------|
----------------------7-8-10-12-13----|-----12---------------------------|
--------------------8-----------------|--------12-11-9-------------------|
--------------7-8-9-------------------|----------------9-----------------|
--2-3-1-2-6-9-------------------------|------------------10-9-7----L-----|
--------------------------------------|----------------------------------|


                                                \1/         \1/               
  E  S S S S S S S S S S S S S S    H           H           W                 
---------------------------------|-----------------------|-------------------|
--5----8---7-5-4-1-0-------------|-----------------------|-------------------|
---------------------2-1---------|-----------------------|-------------------|
-------------------------2-1-----|-----------------------|-------------------|
-----------------------------2-1-|--0--------------------|-------------------|
---------------------------------|-----------<>15--------|--2----------------|


  W                                                                             
-------------------|-------------------|-------------------|-------------------|
-------------------|-------------------|-------------------|-------------------|
-------------------|-------------------|-------------------|-------------------|
-------------------|-------------------|-------------------|-------------------|
-------------------|-------------------|-------------------|-------------------|
--L----------------|-------------------|-------------------|-------------------|


-------------------|-------------------|-------------------|-------------------|
-------------------|-------------------|-------------------|-------------------|
-------------------|-------------------|-------------------|-------------------|
-------------------|-------------------|-------------------|-------------------|
-------------------|-------------------|-------------------|-------------------|
-------------------|-------------------|-------------------|-------------------|


-------------------|-------------------|-------------------|-------------------|
-------------------|-------------------|-------------------|-------------------|
-------------------|-------------------|-------------------|-------------------|
-------------------|-------------------|-------------------|-------------------|
-------------------|-------------------|-------------------|-------------------|
-------------------|-------------------|-------------------|-------------------|


  Q    E  E  E  E  E  E     H        Q     Q       Q    E  E  E  E  E  E   
-------------------------|----------------------|-------------------------|
-------8--5--7--8--8--7--|--L--------L\---------|-------8--5--7--8--8--7--|
-------------------------|----------------------|-------------------------|
-------------------------|----------------------|-------------------------|
-------------------------|----------------------|-------------------------|
-------------------------|----------------------|-------------------------|


  H        Q    E  E      Q    E  E  E  E  E  E     H        Q     Q     
-----------------------|-------------------------|----------------------|
--L--------3----L--L\--|-------8--5--7--8--8--7--|--L--------L\---------|
-----------------------|-------------------------|----------------------|
-----------------------|-------------------------|----------------------|
-----------------------|-------------------------|----------------------|
-----------------------|-------------------------|----------------------|


  Q    E  E  E  E  E  E     H        Q    E  E      Q    E  E  E  E  E  E   
-------------------------|-----------------------|-------------------------|
-------8--5--7--8--8--7--|--L--------3----L--L\--|-------8--5--7--8--8--7--|
-------------------------|-----------------------|-------------------------|
-------------------------|-----------------------|-------------------------|
-------------------------|-----------------------|-------------------------|
-------------------------|-----------------------|-------------------------|


  H        Q     Q       Q    E  E  E  E  E  E     H        Q    E  E    
----------------------|-------------------------|-----------------------|
--L--------L\---------|-------8--5--7--8--8--7--|--L--------3----L--L\--|
----------------------|-------------------------|-----------------------|
----------------------|-------------------------|-----------------------|
----------------------|-------------------------|-----------------------|
----------------------|-------------------------|-----------------------|


  Q    E  E  E  E  E  E     H        Q     Q       Q    E  E  E  E  E  E   
-------------------------|----------------------|-------------------------|
-------8--5--7--8--8--7--|--L--------L\---------|-------8--5--7--8--8--7--|
-------------------------|----------------------|-------------------------|
-------------------------|----------------------|-------------------------|
-------------------------|----------------------|-------------------------|
-------------------------|----------------------|-------------------------|


  H        Q    E  E      S S S S S S S S S S S S S S S S  
-----------------------|----------------------------------|
--L--------3----L--L\--|--5-0-0-7-0-0-8-0-0-7-0-0-7-0-----|
-----------------------|------------------------------4-0-|
-----------------------|----------------------------------|
-----------------------|----------------------------------|
-----------------------|----------------------------------|


  S S S S S S S S S S S S S S S S    S S S S S S S S S S S S S S E   
----------------------------------|---------------------------------|
--5-0-0-7-0-0-8-0-0-7-0-0-7-0-----|--5-0-0-7-0-0-8-0-0-7-0-0-7-0-3--|
------------------------------4-0-|---------------------------------|
----------------------------------|---------------------------------|
----------------------------------|---------------------------------|
----------------------------------|---------------------------------|


  W                   W                   W                  
-------------------|-------------------|-------------------||
--L----------------|--L----------------|--L----------------||
-------------------|-------------------|-------------------||
-------------------|-------------------|-------------------||
-------------------|-------------------|-------------------||
-------------------|-------------------|-------------------||


Guitar 3

Starts at (01:37)


  Q     E  E   E   E   E   E     H        Q     Q     
------------------------------|----------------------|
-------12--8--10--12--12--10--|--L--------L\---------|
------------------------------|----------------------|
------------------------------|----------------------|
------------------------------|----------------------|
------------------------------|----------------------|


  Q     E  E   E   E   E   E     H        Q    E  E    
------------------------------|-----------------------|
-------12--8--10--12--12--10--|--L--------7----L--L\--|
------------------------------|-----------------------|
------------------------------|-----------------------|
------------------------------|-----------------------|
------------------------------|-----------------------|


  Q     E  E   E   E   E   E     H        Q     Q     
------------------------------|----------------------|
-------12--8--10--12--12--10--|--L--------L\---------|
------------------------------|----------------------|
------------------------------|----------------------|
------------------------------|----------------------|
------------------------------|----------------------|


  Q     E  E   E   E   E   E     H        Q    E  E                            
------------------------------|-----------------------|-------|-------|-------|
-------12--8--10--12--12--10--|--L--------7----L--L\--|-------|-------|-------|
------------------------------|-----------------------|-------|-------|-------|
------------------------------|-----------------------|-------|-------|-------|
------------------------------|-----------------------|-------|-------|-------|
------------------------------|-----------------------|-------|-------|-------|


(02:35)


  Q     E  E   E   E   E   E     H        Q     Q     
------------------------------|----------------------|
-------12--8--10--12--12--10--|--L--------L\---------|
------------------------------|----------------------|
------------------------------|----------------------|
------------------------------|----------------------|
------------------------------|----------------------|


  Q     E  E   E   E   E   E     H        Q    E  E    
------------------------------|-----------------------|
-------12--8--10--12--12--10--|--L--------7----L--L\--|
------------------------------|-----------------------|
------------------------------|-----------------------|
------------------------------|-----------------------|
------------------------------|-----------------------|


  Q     E  E   E   E   E   E     H        Q     Q     
------------------------------|----------------------|
-------12--8--10--12--12--10--|--L--------L\---------|
------------------------------|----------------------|
------------------------------|----------------------|
------------------------------|----------------------|
------------------------------|----------------------|


  Q     E  E   E   E   E   E     H        Q    E  E                            
------------------------------|-----------------------|-------|-------|-------|
-------12--8--10--12--12--10--|--L--------7----L--L\--|-------|-------|-------|
------------------------------|-----------------------|-------|-------|-------|
------------------------------|-----------------------|-------|-------|-------|
------------------------------|-----------------------|-------|-------|-------|
------------------------------|-----------------------|-------|-------|-------|


(03:47)


   T      T      T      T      T    T    
   S S S  S S S  S S S  S S S  S S  S S  
--12-0-7-14-0-7-15-0-7-14-0-7-14-0-19-0-|
----------------------------------------|
----------------------------------------|
----------------------------------------|
----------------------------------------|
----------------------------------------|


   T      T      T      T      T    T    
   S S S  S S S  S S S  S S S  S S  S S  
--12-0-7-14-0-7-15-0-7-14-0-7-14-0-19-0-|
----------------------------------------|
----------------------------------------|
----------------------------------------|
----------------------------------------|
----------------------------------------|


   T      T      T      T      T    T    
   S S S  S S S  S S S  S S S  S S  S S  
--12-0-7-14-0-7-15-0-7-14-0-7-14-0-19-0-|
----------------------------------------|
----------------------------------------|
----------------------------------------|
----------------------------------------|
----------------------------------------|


   T       T       T       T       T       T  
   S S  S  S S  S  S S  S  S S  S  S S  S  S  
--17-0-10-17-0-10-15-0-10-15-0-10-14-0-10-14-|
---------------------------------------------|
---------------------------------------------|
---------------------------------------------|
---------------------------------------------|
---------------------------------------------|


   T      T      T      T      T    T    
   S S S  S S S  S S S  S S S  S S  S S  
--12-0-7-14-0-7-15-0-7-14-0-7-14-0-19-0-|
----------------------------------------|
----------------------------------------|
----------------------------------------|
----------------------------------------|
----------------------------------------|


   T      T      T      T      T    T    
   S S S  S S S  S S S  S S S  S S  S S  
--12-0-7-14-0-7-15-0-7-14-0-7-14-0-19-0-|
----------------------------------------|
----------------------------------------|
----------------------------------------|
----------------------------------------|
----------------------------------------|


   T      T      T      T      T    T    
   S S S  S S S  S S S  S S S  S S  S S  
--12-0-7-14-0-7-15-0-7-14-0-7-14-0-19-0-|
----------------------------------------|
----------------------------------------|
----------------------------------------|
----------------------------------------|
----------------------------------------|


   T       T       T       T       T       T  
   S S  S  S S  S  S S  S  S S  S  S S  S  S  
--17-0-10-17-0-10-15-0-10-15-0-10-14-0-10-14-|
---------------------------------------------|
---------------------------------------------|
---------------------------------------------|
---------------------------------------------|
---------------------------------------------|


   T      T      T      T      T    T    
   S S S  S S S  S S S  S S S  S S  S S  
--12-0-7-14-0-7-15-0-7-14-0-7-14-0-19-0-|
----------------------------------------|
----------------------------------------|
----------------------------------------|
----------------------------------------|
----------------------------------------|


   T      T      T      T      T    T    
   S S S  S S S  S S S  S S S  S S  S S  
--12-0-7-14-0-7-15-0-7-14-0-7-14-0-19-0-|
----------------------------------------|
----------------------------------------|
----------------------------------------|
----------------------------------------|
----------------------------------------|


   T      T      T      T      T    T    
   S S S  S S S  S S S  S S S  S S  S S  
--12-0-7-14-0-7-15-0-7-14-0-7-14-0-19-0-|
----------------------------------------|
----------------------------------------|
----------------------------------------|
----------------------------------------|
----------------------------------------|


   T       T       T       T       T         
   S S  S  S S  S  S S  S  S S  S  S S  S S  
--17-0-10-17-0-10-17-0-10-17-0-10-17-0-10-0-|
--------------------------------------------|
--------------------------------------------|
--------------------------------------------|
--------------------------------------------|
--------------------------------------------|


   T       T       T       T       T       T                                 
   S S  S  S S  S  S S  S  S S  S  S S  S  S    Q     E  E   E   E   E   E   
--17-0-10-17-0-10-15-0-10-15-0-10-14-0-10-14-|------------------------------|
---------------------------------------------|-------12--8--10--12--12--10--|
---------------------------------------------|------------------------------|
---------------------------------------------|------------------------------|
---------------------------------------------|------------------------------|
---------------------------------------------|------------------------------|


  H        Q     Q       Q     E  E   E   E   E   E     H        Q    E  E    
----------------------|------------------------------|-----------------------|
--L--------L\---------|-------12--8--10--12--12--10--|--L--------7----L--L\--|
----------------------|------------------------------|-----------------------|
----------------------|------------------------------|-----------------------|
----------------------|------------------------------|-----------------------|
----------------------|------------------------------|-----------------------|


  Q     E  E   E   E   E   E     H        Q     Q     
------------------------------|----------------------|
-------12--8--10--12--12--10--|--L--------L\---------|
------------------------------|----------------------|
------------------------------|----------------------|
------------------------------|----------------------|
------------------------------|----------------------|


  Q     E  E   E   E   E   E     H        Q    E  E    
------------------------------|-----------------------|
-------12--8--10--12--12--10--|--L--------7----L--L\--|
------------------------------|-----------------------|
------------------------------|-----------------------|
------------------------------|-----------------------|
------------------------------|-----------------------|


  Q     E  E   E   E   E   E     H        Q     Q     
------------------------------|----------------------|
-------12--8--10--12--12--10--|--L--------L\---------|
------------------------------|----------------------|
------------------------------|----------------------|
------------------------------|----------------------|
------------------------------|----------------------|


  Q     E  E   E   E   E   E     H        Q    E  E    
------------------------------|-----------------------|
-------12--8--10--12--12--10--|--L--------7----L--L\--|
------------------------------|-----------------------|
------------------------------|-----------------------|
------------------------------|-----------------------|
------------------------------|-----------------------|


  Q     E  E   E   E   E   E     H        Q     Q     
------------------------------|----------------------|
-------12--8--10--12--12--10--|--L--------L\---------|
------------------------------|----------------------|
------------------------------|----------------------|
------------------------------|----------------------|
------------------------------|----------------------|


  Q     E  E   E   E   E   E     H        Q    E  E                            
------------------------------|-----------------------|-------|-------|-------|
-------12--8--10--12--12--10--|--L--------7----L--L\--|-------|-------|-------|
------------------------------|-----------------------|-------|-------|-------|
------------------------------|-----------------------|-------|-------|-------|
------------------------------|-----------------------|-------|-------|-------|
------------------------------|-----------------------|-------|-------|-------|


Duration Legend
---------------
W - whole
H - half
Q - quarter
E - 8th
S - 16th
T - 32nd
X - 64th
. - note dotted
|-n-|  - n-tuplets


Tablature Legend
----------------
L - tied note
x - dead note
g - grace note
(n) - ghost note
> - accentuded note
NH - natural harmonic
AH - artificial harmonic
TH - tapped harmonic
SH - semi harmonic
PH - pitch harmonic
h - hammer on
p - pull off
b - bend
br - bendRelease
pb - preBend
pbr - preBendRelease
brb - bendReleaseBend
\n/ - tremolo bar dip
\n - tremolo bar dive
-/n - tremolo bar Release up
/n\ - tremolo bar inverted dip
/n - tremolo bar return
-\n - tremolo bar Release down
S - shift slide
s - legato slide
/ -  slide into from below or out of upwards
\ -  slide into from above or out of downwards
~ - vibrato
W - wide vibrato
tr - trill
TP - tremolo picking
T - tapping
S - slap
P - pop
< - fade in
^ - brush up
v - brush down


That is all! I hope this helped, and be sure to check out my cover if you are
having problems with the tab. Thanks, oh and one last thing... ROCK OUT!!!!

            
            
Suggest correction
Creating personal tab
Creating personal tab
You can edit any tab online and save it as your Personal.

You can edit, replace or remove any tab part or add personal notes – all changes will be seen only by you.

Personal tabs can be accessed anytime from any device, even offline.
Learn more »
comments
print report bad tab
2 comments total.
0 reply
living bodies 58 Sep 10, 2013 01:04 PM

Not sure why this tab was a 3 star... It's brilliant, 5*s! Also amazing cover of the song, but if I was being (really) picky you could improve the linking between the parts of the tapping in the intro. Love it otherwise :D

0 reply
dkm817 7,189 Sep 11, 2013 07:39 PM

Thank you for the tips! I guess someone didn't really like the tabs, but there is not much you can do about it. Someday, I'll get back to dividing the sections again.

guest
You may want to rate the tab now too:
select rating
Wanna post a correction for this tab? Suggest correction