Oops, an error
Loading. Please wait.

I Wont See You Tonight Part 1 bass

version 3
version 3

Whole song

Interactive

639 views 1 this week
no commentswrite comment
1 2 3 4 5
x 3
add to favorites
×
Save as Personal and add changes to this tab that will be seen only by you. Learn more ›
×
You can save this tab as Personal to edit and correct it or add notes. All changes will be seen only by you. Learn more »
launch autoscroll
font size
0
reset
guitar tuner
edit
Autoscroll
slow
fast
+/-
esc
set tempo
stop
#----------------------------------PLEASE NOTE---------------------------------#
#This file is the author's own work and represents their interpretation of the #
#song. You may only use this file for private study, scholarship, or research. #
#------------------------------------------------------------------------------#

I WONT SEE YOU TONIGHT PART ONE (Bassline)
As recorded by Avenged Sevenfold
(From the 2003 Album WAKING THE FALLEN)

Transcribed by Seth Shadows
	

Words by Matthew Sanders (M. Shadows) Music by Avenged Sevenfold
Arranged by Avenged Sevenfold

Gtr I (D A D G) - 'Johnny Christ'
Gtr II (E A D G B E) - 'The Rev'

  Q=60
 4/4
  Gtr I
   W           W          W          W
|------------|----------|----------|------|
|------------|----------|----------|------|
|------------|----------|----------|------|
|-(0)--------|----------|----------|------|


                                                         Q=60
            2/4        4/4                   2/4        1/4
  Gtr II
  W          W          W          W          W          E S S
|----------|----------|----------|----------|----------|---0---|
|----------|----------|----------|----------|----------|-------|
|----------|----------|----------|----------|----------|-------|
|----------|----------|----------|----------|----------|-------|
|----------|----------|----------|----------|----------|-------|
|----------|----------|----------|----------|----------|-------|


  Q=67
 4/4
  Gtr I
  S S S S S S S S S S S S S S S S   S S S S S S S S S S S S S S S S
|---------------------------------|----------------------------------|
|---------------------------------|----------------------------------|
|---------------------------------|----------------------------------|
|-5-5-5-5-5-5-5-5-5-5-5-5-5-5-5-5-|-1-1-1-1-1-1-1-1-1-1-1-1-1-1-1-1--|
|
| Gtr II
| S S S S S S S S S S S S S S S S   S S S S S S S S S S S S S S S S
|-0---0-----------0-0-0-0---------|-0---0-----------0-0-0-0----------|
|---------------------------------|----------------------------------|
|---2---2-2-2-2-2---------2-2-2-2-|---2---2-2-2-2-2---------2-2-2-2--|
|---------------------------------|----------------------------------|
|---------------------------------|----------------------------------|
|---------0---------------0-------|---------0---------------0--------|


  S S S S S S S S S S S S S S S S   S S S S S S S S S S S S S S S S
|---------------------------------|---------------------------------|
|---------------------------------|---------------------------------|
|---------------------------------|---------------------------------|
|-3-3-3-3-3-3-3-3-3-3-3-3-3-3-3-3-|-0-0-0-0-0-0-0-0-0-0-0-0-0-0-0-0-|
|
| S S S S S S S S S S S S S S S S   S S S S S S S S S S S S S S S S
|-0---0-----------0-0-0-0---------|-0---0-----------0-0-0-0---------|
|---------------------------------|---------------------------------|
|---2---2-2-2-2-2---------2-2-2-2-|---2---2-2-2-2-2---------2-2-2-2-|
|---------------------------------|---------------------------------|
|---------------------------------|---------------------------------|
|---------0---------------0-------|---------0---------------0-------|


  S S S S S S S S S S S S S S S S   S S S S S S S S S S S S S S S S
|---------------------------------|---------------------------------|
|---------------------------------|---------------------------------|
|---------------------------------|-1-1-1-1-1-1-1-1-----------------|
|-1-1-1-1-1-1-1-1-1-1-1-1-1-1-1-1-|-----------------3-3-3-3-3-3-3-3-|
|
| S S S S S S S S S S S S S S S S   S S S S S S S S S S S S S S S S
|-0---0-----------0-0-0-0---------|-0---0-----------0-0-0-0---------|
|---------------------------------|---------------------------------|
|---2---2-2-2-2-2---------2-2-2-2-|---2---2-2-2-2-2---------2-2-2-2-|
|---------------------------------|---------------------------------|
|---------------------------------|---------------------------------|
|---------0---------------0-------|---------0---------------0-------|


  S S S S S S S S S S S S S S S S   S S S S S S S S S S S S S S S S
|---------------------------------|---------------------------------|
|---------------------------------|---------------------------------|
|---------------------------------|---------------------------------|
|-5-5-5-5-5-5-5-5-5-5-5-5-5-5-5-5-|-1-1-1-1-1-1-1-1-1-1-1-1-1-1-1-1-|
|
| S S S S S S S S S S S S S S S S   S S S S S S S S S S S S S S S S
|-0---0-----------0-0-0-0---------|-0---0-----------0-0-0-0---------|
|---------------------------------|---------------------------------|
|---2---2-2-2-2-2---------2-2-2-2-|---2---2-2-2-2-2---------2-2-2-2-|
|---------------------------------|---------------------------------|
|---------------------------------|---------------------------------|
|---------0---------------0-------|---------0---------------0-------|


  S S S S S S S S S S S S S S S S   S S S S S S S S S S S S S S S S
|---------------------------------|---------------------------------|
|---------------------------------|---------------------------------|
|---------------------------------|---------------------------------|
|-3-3-3-3-3-3-3-3-3-3-3-3-3-3-3-3-|-0-0-0-0-0-0-0-0-1-1-1-1-3-3-3-3-|
|
| S S S S S S S S S S S S S S S S   S S S S S S S S S S S S S S S S
|-0---0-----------0-0-0-0---------|-0---0-----------0-0-0-0---------|
|---------------------------------|---------------------------------|
|---2---2-2-2-2-2---------2-2-2-2-|---2---2-2-2-2-2---------2-2-2-2-|
|---------------------------------|---------------------------------|
|---------------------------------|---------------------------------|
|---------0---------------0-------|---------0---------------0-------|


  Q=65
  W          W          W          W
|----------|----------|----------|------|
|----------|----------|----------|------|
|----------|----------|----------|------|
|-5--------|----------|----------|------|
|
| W          W          W          W
|----------|----------|----------|------|
|----------|----------|----------|------|
|----------|----------|----------|------|
|----------|----------|----------|------|
|-4--------|----------|----------|------|
|----------|----------|----------|------|


                     Q=66
  W                  E   S S +S  S S S S S E   E   E
|------------------|-----------------5-5-5--------------|
|------------------|-------------5-5-------5-------3----|
|------------------|-----5-5-(5)---------------5--------|
|------------------|-5----------------------------------|
|
| H    S E S S S E   S S S S  S  S S S S S S S S S S S
|----------0-0-0---|-0-0-0-0-------------0-0-0----------|
|------------------|------------------------------------|
|------------------|------------------------------------|
|------------------|------------------------------------|
|-6--------------1-|------------------------------------|
|------0-7-------0-|----------0----2---2-------0---2----|


  E   S S +S  S S S S S E   E   E     E   S S +S  S S S S S E   E   E
|-----------------5-5-5-------------|-----------------3-3-3-------------|
|-------------3-3-------3---5-------|-------------1-1-------1---3-------|
|-----3-3-(3)-------------------5---|-----1-1-(1)-------------------5---|
|-3---------------------------------|-1---------------------------------|
|
| S S S S  S  S S S S S S S S S S S   S S S S  S  S S S S S S S S S S S
|-0-0-0-0-------------0-0-0---------|-0-0-0-0-------------0-0-0---------|
|-----------------------------------|-----------------------------------|
|-----------------------------------|-----------------------------------|
|-----------------------------------|-----------------------------------|
|-----------------------------------|-----------------------------------|
|----------0----2---2-------0---2---|----------0----2---2-------0---2---|


  E.     S +E    S S S E   S  S E    S   E   S S +S  S S S S S E   E   E
|--------------------------------------|-----------------5-5-5-------------|
|--------------------------------------|-------------5-5-------5-------3---|
|--------5-(5)-------6----------8------|-----5-5-(5)---------------5-------|
|-0--------------7-8---8---8-10-----10-|-5---------------------------------|
|
| S  S S S  S  S S S S S S S  S S S  S   S S S S  S  S S S S S S S S S S S
|-0--0-0-0-------------0-0-0-----------|-0-0-0-0-------------0-0-0---------|
|--------------------------------------|-----------------------------------|
|--------------------------------------|-----------------------------------|
|--------------------------------------|-----------------------------------|
|--------------------------------------|-----------------------------------|
|-----------0----2---2--------0---2----|----------0----2---2-------0---2---|


  E   S S +S  S S S S S E   E   E     E   S S +S  S S S S S E   E   E
|-----------------5-5-5-------------|-----------------3-3-3-------------|
|-------------3-3-------3---5-------|-------------1-1-------1---3-------|
|-----3-3-(3)-------------------5---|-----1-1-(1)-------------------5---|
|-3---------------------------------|-1---------------------------------|
|
| S S S S  S  S S S S S S S S S S S   S S S S  S  S S S S S S S S S S S
|-0-0-0-0-------------0-0-0---------|-0-0-0-0-------------0-0-0---------|
|-----------------------------------|-----------------------------------|
|-----------------------------------|-----------------------------------|
|-----------------------------------|-----------------------------------|
|-----------------------------------|-----------------------------------|
|----------0----2---2-------0---2---|----------0----2---2-------0---2---|


                                         Q=68
  E.     S +E    S S S E   S  S E    S   S S S S S S S S S S S S S S S S
|--------------------------------------|---------------------------------|
|--------------------------------------|---------------------------------|
|--------5-(5)-------6----------8------|---------------------------------|
|-0--------------7-8---8---8-10-----10-|-5-5-5-5-5-5-5-5-5-5-5-5-5-5-5-5-|
|
| S  S S S  S  S S S S S S S  S S S  S   S S S S S S S S S S S S S S S S
|-0--0-0-0--0--0-0-0-0-0-0-0----0------|-0-0---0---0---0-0-0---0---0---0-|
|--------------------------------------|---------------------------------|
|--------------------------------------|-----2---2---2-------2---2---2---|
|--------------------------------------|---------------------------------|
|--------------------------------------|---------------------------------|
|-----------------------------0---0----|---------0---------------0-------|


  S S S S S S S S S S S S S S S S   S S S S S S S S S S S S S S S S
|---------------------------------|---------------------------------|
|---------------------------------|---------------------------------|
|---------------------------------|-1-1-1-1-1-1-1-1-1-1-1-1-1-1-1-1-|
|-1-1-1-1-1-1-1-1-1-1-1-1-1-1-1-1-|---------------------------------|
|
| S S S S S S S S S S S S S S S S   S S S S S S S S S S S S S S S S
|-0-0---0---0---0-0-0---0---0---0-|-0-0---0---0---0-0-0---0---0---0-|
|---------------------------------|---------------------------------|
|-----2---2---2-------2---2---2---|-----2---2---2-------2---2---2---|
|---------------------------------|---------------------------------|
|---------------------------------|---------------------------------|
|---------0---------------0-------|---------0---------------0-------|


              Q=66
  H    H      E   S S +S  S S S S S E   E   E
|-----------|-----------------5-5-5-------------|
|-----------|-------------5-5-------5-------3---|
|-----------|-----5-5-(5)---------------5-------|
|-3----4----|-5---------------------------------|
|
| H    H      S S S S  S  S S S S S S S S S S S
|-0----0----|-0-0-0-0-------------0-0-0---------|
|-----------|-----------------------------------|
|-----------|-----------------------------------|
|-----------|-----------------------------------|
|-----------|-----------------------------------|
|-----------|----------0----2---2-------0---2---|


  E   S S +S  S S S S S E   E   E     E   S S +S  S S S S S E   E   E
|-----------------5-5-5-------------|-----------------3-3-3-------------|
|-------------3-3-------3---5-------|-------------1-1-------1---3-------|
|-----3-3-(3)-------------------5---|-----1-1-(1)-------------------5---|
|-3---------------------------------|-1---------------------------------|
|
| S S S S  S  S S S S S S S S S S S   S S S S  S  S S S S S S S S S S S
|-0-0-0-0-------------0-0-0---------|-0-0-0-0-------------0-0-0---------|
|-----------------------------------|-----------------------------------|
|-----------------------------------|-----------------------------------|
|-----------------------------------|-----------------------------------|
|-----------------------------------|-----------------------------------|
|----------0----2---2-------0---2---|----------0----2---2-------0---2---|


  E.     S +E    S S S E   S  S E    S   E   S S +S  S S S S S E   E   E
|--------------------------------------|-----------------5-5-5-------------|
|--------------------------------------|-------------5-5-------5-------3---|
|--------5-(5)-------6----------8------|-----5-5-(5)---------------5-------|
|-0--------------7-8---8---8-10-----10-|-5---------------------------------|
|
| S  S S S  S  S S S S S S S  S S S  S   S S S S  S  S S S S S S S S S S S
|-0--0-0-0-------------0-0-0-----------|-0-0-0-0-------------0-0-0---------|
|--------------------------------------|-----------------------------------|
|--------------------------------------|-----------------------------------|
|--------------------------------------|-----------------------------------|
|--------------------------------------|-----------------------------------|
|-----------0----2---2--------0---2----|----------0----2---2-------0---2---|


  E   S S +S  S S S S S E   E   E     E   S S +S  S S S S S E   E   E
|-----------------5-5-5-------------|-----------------3-3-3-------------|
|-------------3-3-------3---5-------|-------------1-1-------1---3-------|
|-----3-3-(3)-------------------5---|-----1-1-(1)-------------------5---|
|-3---------------------------------|-1---------------------------------|
|
| S S S S  S  S S S S S S S S S S S   S S S S  S  S S S S S S S S S S S
|-0-0-0-0-------------0-0-0---------|-0-0-0-0-------------0-0-0---------|
|-----------------------------------|-----------------------------------|
|-----------------------------------|-----------------------------------|
|-----------------------------------|-----------------------------------|
|-----------------------------------|-----------------------------------|
|----------0----2---2-------0---2---|----------0----2---2-------0---2---|


                                         Q=68
  E.     S +E    S S S E   S  S E    S   S S S S S S S S S S S S S S S S
|--------------------------------------|---------------------------------|
|--------------------------------------|---------------------------------|
|--------5-(5)-------6----------8------|---------------------------------|
|-0--------------7-8---8---8-10-----10-|-5-5-5-5-5-5-5-5-5-5-5-5-5-5-5-5-|
|
| S  S S S  S  S S S S S S S  S S S  S   S S S S S S S S S S S S S S S S
|-0--0-0-0--0--0-0-0-0-0-0-0----0------|-0-0---0---0---0-0-0---0---0---0-|
|--------------------------------------|---------------------------------|
|--------------------------------------|-----2---2---2-------2---2---2---|
|--------------------------------------|---------------------------------|
|--------------------------------------|---------------------------------|
|-----------------------------0---0----|---------0---------------0-------|


  S S S S S S S S S S S S S S S S   S S S S S S S S S S S S S S S S
|---------------------------------|---------------------------------|
|---------------------------------|---------------------------------|
|---------------------------------|-1-1-1-1-1-1-1-1-1-1-1-1-1-1-1-1-|
|-1-1-1-1-1-1-1-1-1-1-1-1-1-1-1-1-|---------------------------------|
|
| S S S S S S S S S S S S S S S S   S S S S S S S S S S S S S S S S
|-0-0---0---0---0-0-0---0---0---0-|-0-0---0---0---0-0-0---0---0---0-|
|---------------------------------|---------------------------------|
|-----2---2---2-------2---2---2---|-----2---2---2-------2---2---2---|
|---------------------------------|---------------------------------|
|---------------------------------|---------------------------------|
|---------0---------------0-------|---------0---------------0-------|


                                    Q=68
  S S S S S S S S S S S S S S S S   S S S S S S S S S S S S S S S S
|---------------------------------|---------------------------------|
|---------------------------------|---------------------------------|
|---------------------------------|---------------------------------|
|-3-3-3-3-3-3-3-3-4-4-4-4-4-4-4-4-|-5-5-5-5-5-5-5-5-5-5-5-5-5-5-5-5-|
|
| S S S S S S S S S S S S S S S S   S S S S S S S S S S S S S S S S
|-0-0---0---0---0-0-0---0---0---0-|-0-0---0---0---0-0-0---0---0---0-|
|---------------------------------|---------------------------------|
|-----2---2---2-------2---2---2---|-----2---2---2-------2---2---2---|
|---------------------------------|---------------------------------|
|---------------------------------|---------------------------------|
|---------0---------------0-------|---------0---------------0-------|


  S S S S S S S S S S S S S S S S   S S S S S S S S S S S S S S S S
|---------------------------------|---------------------------------|
|---------------------------------|---------------------------------|
|---------------------------------|-1-1-1-1-1-1-1-1-1-1-1-1-1-1-1-1-|
|-1-1-1-1-1-1-1-1-1-1-1-1-1-1-1-1-|---------------------------------|
|
| S S S S S S S S S S S S S S S S   S S S S S S S S S S S S S S S S
|-0-0---0---0---0-0-0---0---0---0-|-0-0---0---0---0-0-0---0---0---0-|
|---------------------------------|---------------------------------|
|-----2---2---2-------2---2---2---|-----2---2---2-------2---2---2---|
|---------------------------------|---------------------------------|
|---------------------------------|---------------------------------|
|---------0---------------0-------|---------0---------------0-------|


                                    Q=68
  S S S S S S S S S S S S S S S S   S S S S S S S S S S S S S S S S
|---------------------------------|---------------------------------|
|---------------------------------|---------------------------------|
|---------------------------------|---------------------------------|
|-3-3-3-3-3-3-3-3-4-4-4-4-4-4-4-4-|-5-5-5-5-5-5-5-5-5-5-5-5-5-5-5-5-|
|
| S S S S S S S S S S S S S S S S   S S S S S S S S S S S S S S S S
|-0-0---0---0---0-0-0---0---0---0-|-0-0---0---0---0-0-0---0---0---0-|
|---------------------------------|---------------------------------|
|-----2---2---2-------2---2---2---|-----2---2---2-------2---2---2---|
|---------------------------------|---------------------------------|
|---------------------------------|---------------------------------|
|---------0---------------0-------|---------0---------------0-------|


  S S S S S S S S S S S S S S S S   S S S S S S S S S S S S S S S S
|---------------------------------|---------------------------------|
|---------------------------------|---------------------------------|
|---------------------------------|---------------------------------|
|-1-1-1-1-1-1-1-1-1-1-1-1-1-1-1-1-|-3-3-3-3-3-3-3-3-3-3-3-3-3-3-3-3-|
|
| S S S S S S S S S S S S S S S S   S S S S S S S S S S S S S S S S
|-0-0---0---0---0-0-0---0---0---0-|-0-0---0---0---0-0-0---0---0---0-|
|---------------------------------|---------------------------------|
|-----2---2---2-------2---2---2---|-----2---2---2-------2---2---2---|
|---------------------------------|---------------------------------|
|---------------------------------|---------------------------------|
|---------0---------------0-------|---------0---------------0-------|


                                    Q=68
  S S S S S S S S S S S S S S S S   S S S S S S S S S S S S S S S S
|---------------------------------|---------------------------------|
|---------------------------------|---------------------------------|
|---------------------------------|---------------------------------|
|-0-0-0-0-0-0-0-0-0-0-0-0-0-0-0-0-|-1-1-1-1-1-1-1-1-1-1-1-1-1-1-1-1-|
|
| S S S S S S S S S S S S S S S S   S S S S S S S S S S S S S S S S
|-0-0---0---0---0-0-0---0---0---0-|-0-0---0---0---0-0-0---0---0---0-|
|---------------------------------|---------------------------------|
|-----2---2---2-------2---2---2---|-----2---2---2-------2---2---2---|
|---------------------------------|---------------------------------|
|---------------------------------|---------------------------------|
|---------0---------------0-------|---------0---------------0-------|


  S S S S S S S S S S S S S S S S   S S S S S S S S S S S S S S S S
|---------------------------------|---------------------------------|
|---------------------------------|---------------------------------|
|-1-1-1-1-1-1-1-1-----------------|---------------------------------|
|-----------------3-3-3-3-3-3-3-3-|-5-5-5-5-5-5-5-5-5-5-5-5-5-5-5-5-|
|
| S S S S S S S S S S S S S S S S   S S S S S S S S S S S S S S S S
|-0-0---0---0---0-0-0---0---0---0-|-0-0---0---0---0-0-0---0---0---0-|
|---------------------------------|---------------------------------|
|-----2---2---2-------2---2---2---|-----2---2---2-------2---2---2---|
|---------------------------------|---------------------------------|
|---------------------------------|---------------------------------|
|---------0---------------0-------|---------0---------------0-------|


  S S S S S S S S S S S S S S S S   S S S S S S S S S S S S S S S S
|---------------------------------|---------------------------------|
|---------------------------------|---------------------------------|
|---------------------------------|---------------------------------|
|-1-1-1-1-1-1-1-1-1-1-1-1-1-1-1-1-|-3-3-3-3-3-3-3-3-3-3-3-3-3-3-3-3-|
|
| S S S S S S S S S S S S S S S S   S S S S S S S S S S S S S S S S
|-0-0---0---0---0-0-0---0---0---0-|-0-0---0---0---0-0-0---0---0---0-|
|---------------------------------|---------------------------------|
|-----2---2---2-------2---2---2---|-----2---2---2-------2---2---2---|
|---------------------------------|---------------------------------|
|---------------------------------|---------------------------------|
|---------0---------------0-------|---------0---------------0-------|


  S S S S S S S S S S S S S S S S   S S S S S S S S S S S S S S S S
|---------------------------------|---------------------------------|
|---------------------------------|---------------------------------|
|---------------------------------|---------------------------------|
|-0-0-0-0-0-0-0-0-1-1-1-1-3-3-3-3-|-5-5-5-5-5-5-5-5-5-5-5-5-5-5-5-5-|
|
| S S S S S S S S S S S S S S S S   S S S S S S S S S S S S S S S S
|-0-0---0---0---0-0-0---0---0---0-|-0-0-0-0---0-0-0-0-0-0-0---0-0-0-|
|---------------------------------|---------------------------------|
|-----2---2---2-------2---2---2---|---------2---------------2-------|
|---------------------------------|---------------------------------|
|---------------------------------|---------------------------------|
|---------0---------------0-------|---------0---------------0-------|


  S S S S S S S S S S S S S S S S   S S S S S S S S S S S S S S S S
|---------------------------------|---------------------------------|
|---------------------------------|---------------------------------|
|---------------------------------|---------------------------------|
|-3-3-3-3-3-3-3-3-3-3-3-3-3-3-3-3-|-1-1-1-1-1-1-1-1-1-1-1-1-1-1-1-1-|
|
| S S S S S S S S S S S S S S S S   S S S S S S S S S S S S S S S S
|-0-0-0-0---0-0-0-0-0-0-0---0-0-0-|-0-0-0-0---0-0-0-0-0-0-0---0-0-0-|
|---------------------------------|---------------------------------|
|---------2---------------2-------|---------2---------------2-------|
|---------------------------------|---------------------------------|
|---------------------------------|---------------------------------|
|---------0---------------0-------|---------0---------------0-------|


  S S S S S S S S S S S S S S S S   S S S S S S S S S S S S S S S S
|---------------------------------|---------------------------------|
|---------------------------------|---------------------------------|
|---------------------------------|---------------------------------|
|-0-0-0-0-0-0-0-0-0-1-1-1-1-3-3-3-|-5-5-5-5-5-5-5-5-5-5-5-5-5-5-5-5-|
|
| S S S S S S S S S S S S S S S S   S S S S S S S S S S S S S S S S
|-0-0-0-0---0-0-0-0-0-0-0---0-0-0-|-0-0-0-0---0-0-0-0-0-0-0---0-0-0-|
|---------------------------------|---------------------------------|
|---------2---------------2-------|---------2---------------2-------|
|---------------------------------|---------------------------------|
|---------------------------------|---------------------------------|
|---------0---------------0-------|---------0---------------0-------|


  S S S S S S S S S S S S S S S S   S S S S S S S S S S S S S S S S
|---------------------------------|---------------------------------|
|---------------------------------|---------------------------------|
|---------------------------------|---------------------------------|
|-3-3-3-3-3-3-3-3-3-3-3-3-3-3-3-3-|-1-1-1-1-1-1-1-1-1-1-1-1-1-1-1-1-|
|
| S S S S S S S S S S S S S S S S   S S S S S S S S S S S S S S S S
|-0-0-0-0---0-0-0-0-0-0-0---0-0-0-|-0-0-0-0---0-0-0-0-0-0-0---0-0-0-|
|---------------------------------|---------------------------------|
|---------2---------------2-------|---------2---------------2-------|
|---------------------------------|---------------------------------|
|---------------------------------|---------------------------------|
|---------0---------------0-------|---------0---------------0-------|


  S S S S S S S S S S S S S S S S   S S S S S S S S S S S S S S S S
|---------------------------------|---------------------------------|
|---------------------------------|---------------------------------|
|---------------------------------|---------------------------------|
|-0-0-0-0-0-0-0-0-0-1-1-1-1-3-3-3-|-5-5-5-5-5-5-5-5-5-5-5-5-5-5-5-5-|
|
| S S S S S S S S S S S S S S S S   S S S S S S S S S S S S S S S S
|-0-0-0-0---0-0-0---0-0-0---0-0-0-|-0-0-0-0-----0---0-0-0-0---------|
|---------------------------------|---------------------------------|
|---------2-------2-------2-------|---------2-----2---------2---2---|
|---------------------------------|---------------------------------|
|---------------------------------|---------------------------------|
|---------0-------0-------0-------|---------0---------------0-------|


  S S S S S S S S S S S S S S S S   S S S S S S S S S S S S S S S S
|---------------------------------|---------------------------------|
|---------------------------------|---------------------------------|
|---------------------------------|---------------------------------|
|-1-1-1-1-1-1-1-1-1-1-1-1-1-1-1-1-|-3-3-3-3-3-3-3-3-3-3-3-3-3-3-3-3-|
|
| S S S S S S S S S S S S S S S S   S S S S S S S S S S S S S S S S
|-0-0-0-0-----0---0-0-0-0---------|-0-0-0-0-----0---0-0-0-0---------|
|---------------------------------|---------------------------------|
|---------2-----2---------2---2---|---------2-----2---------2---2---|
|---------------------------------|---------------------------------|
|---------------------------------|---------------------------------|
|---------0---------------0-------|---------0---------------0-------|


  S S S S S S S S S S S S S S S S   S S S S S S S S S S S S S S S S
|---------------------------------|---------------------------------|
|---------------------------------|---------------------------------|
|---------------------------------|---------------------------------|
|-0-0-0-0-0-0-0-0-0-0-0-0-0-0-0-0-|-1-1-1-1-1-1-1-1-1-1-1-1-1-1-1-1-|
|
| S S S S S S S S S S S S S S S S   S S S S S S S S S S S S S S S S
|-0-0-0-0-----0---0-0-0-0---------|-0-0-0-0-----0---0-0-0-0---------|
|---------------------------------|---------------------------------|
|---------2-----2---------2---2---|---------2-----2---------2---2---|
|---------------------------------|---------------------------------|
|---------------------------------|---------------------------------|
|---------0---------------0-------|---------0---------------0-------|


  S S S S S S S S S S S S S S S S   S S S S S S S S S S S S S S S S
|---------------------------------|---------------------------------|
|---------------------------------|---------------------------------|
|-1-1-1-1-1-1-1-1-----------------|---------------------------------|
|-----------------3-3-3-3-3-3-3-3-|-5-5-5-5-5-5-5-5-5-5-5-5-5-5-5-5-|
|
| S S S S S S S S S S S S S S S S   S S S S S S S S S S S S S S S S
|-0-0-0-0-----0---0-0-0-0---------|-0-0-0-0-----0---0-0-0-0---------|
|---------------------------------|---------------------------------|
|---------2-----2---------2---2---|---------2-----2---------2---2---|
|---------------------------------|---------------------------------|
|---------------------------------|---------------------------------|
|---------0---------------0-------|---------0---------------0-------|


  S S S S S S S S S S S S S S S S   S S S S S S S S S S S S S S S S
|---------------------------------|---------------------------------|
|---------------------------------|---------------------------------|
|---------------------------------|---------------------------------|
|-1-1-1-1-1-1-1-1-1-1-1-1-1-1-1-1-|-3-3-3-3-3-3-3-3-3-3-3-3-3-3-3-3-|
|
| S S S S S S S S S S S S S S S S   S S S S S S S S S S S S S S S S
|-0-0-0-0-----0---0-0-0-0---------|-0-0-0-0-----0---0-0-0-0---------|
|---------------------------------|---------------------------------|
|---------2-----2---------2---2---|---------2-----2---------2---2---|
|---------------------------------|---------------------------------|
|---------------------------------|---------------------------------|
|---------0---------------0-------|---------0---------------0-------|


  S S S S S S S S S S S S S S S S   S S S S S S S S S S S S S S S S
|---------------------------------|---------------------------------|
|---------------------------------|---------------------------------|
|---------------------------------|---------------------------------|
|-0-0-0-0-0-0-0-0-1-1-1-1-3-3-3-3-|-5-5-5-5-5-5-5-5-5-5-5-5-5-5-5-5-|
|
| S S S S S S S S S S S S S S S S   S S S S S S S S S S S S S S S S
|-0-0-0-0-----0---0-0-0-0---------|-0-0-0-0-----------0-0-0---0-0-0-|
|---------------------------------|---------------------------------|
|---------2-----2---------2---2---|---------2---2---2-------2-------|
|---------------------------------|---------------------------------|
|---------------------------------|---------------------------------|
|---------0---------------0-------|---------0---------------0-------|


  S S S S S S S S S S S S S S S S   S S S S S S S S S S S S S S S S
|---------------------------------|---------------------------------|
|---------------------------------|---------------------------------|
|---------------------------------|---------------------------------|
|-3-3-3-3-3-3-3-3-3-3-3-3-3-3-3-3-|-1-1-1-1-1-1-1-1-1-1-1-1-1-1-1-1-|
|
| S S S S S S S S S S S S S S S S   S S S S S S S S S S S S S S S S
|-0-0-0-0-----------0-0-0---0-0-0-|-0-0-0-0-----------0-0-0---0-0-0-|
|---------------------------------|---------------------------------|
|---------2---2---2-------2-------|---------2---2---2-------2-------|
|---------------------------------|---------------------------------|
|---------------------------------|---------------------------------|
|---------0---------------0-------|---------0---------------0-------|


  S S S S S S S S S S S S S S S S   S S S S S S S S S S S S S S S S
|---------------------------------|---------------------------------|
|---------------------------------|---------------------------------|
|---------------------------------|---------------------------------|
|-0-0-0-0-0-0-0-0-0-1-1-1-1-3-3-3-|-5-5-5-5-5-5-5-5-5-5-5-5-5-5-5-5-|
|
| S S S S S S S S S S S S S S S S   S S S S S S S S S S S S S S S S
|-0-0-0-0-------0-0-0---0---0---0-|-0-0-0-0-----------0-0-0---0-0-0-|
|---------------------------------|---------------------------------|
|---------2---2-------2---2---2---|---------2---2---2-------2-------|
|---------------------------------|---------------------------------|
|---------------------------------|---------------------------------|
|---------0---------------0-------|---------0---------------0-------|


  S S S S S S S S S S S S S S S S   S S S S S S S S S S S S S S S S
|---------------------------------|---------------------------------|
|---------------------------------|---------------------------------|
|---------------------------------|---------------------------------|
|-3-3-3-3-3-3-3-3-3-3-3-3-3-3-3-3-|-1-1-1-1-1-1-1-1-1-1-1-1-1-1-1-1-|
|
| S S S S S S S S S S S S S S S S   S S S S S S S S S S S S S S S S
|-0-0-0-0-----------0-0-0---0-0-0-|-0-0-0-0-----------0-0-0---0-0-0-|
|---------------------------------|---------------------------------|
|---------2---2---2-------2-------|---------2---2---2-------2-------|
|---------------------------------|---------------------------------|
|---------------------------------|---------------------------------|
|---------0---------------0-------|---------0---------------0-------|


                                    Q=65
                                   3/4
  S S S S S S S S S S S S S S S S    H.        +H.        +H.
|---------------------------------|----------|----------|--------|
|---------------------------------|----------|----------|--------|
|---------------------------------|----------|----------|--------|
|-0-0-0-0-0-0-0-0-0-1-1-1-1-3-3-3-|-<3>------|-(3)------|-(3)----|
|
| S S S S S S S S S S S S S S S S    H.         W          W
|-0-0-0-0-------0---0---0---0---0-|--0-------|----------|--------|
|---------------------------------|----------|----------|--------|
|---------2---2---2---2---2---2---|----------|----------|--------|
|---------------------------------|----------|----------|--------|
|---------------------------------|----------|----------|--------|
|---------0-------0-------0-------|----------|----------|--------|


  H.        W        W        W        W        W
|---------|--------|--------|--------|--------|------|
|---------|--------|--------|--------|--------|------|
|---------|--------|--------|--------|--------|------|
|-5-------|--------|--------|--------|--------|------|


  W        W        W        W        W        W
|--------|--------|--------|--------|--------|------|
|--------|--------|--------|--------|--------|------|
|--------|--------|--------|--------|--------|------|
|--------|--------|--------|--------|--------|------|


  W        W        W        W        W
|--------|--------|--------|--------|------|
|--------|--------|--------|--------|------|
|--------|--------|--------|--------|------|
|--------|--------|--------|--------|------|


  S S S S S S S S S S S S   S S S S S S S S S S S S   S S S S S S S S S S S S
|-------------------------|-------------------------|--------------------------|
|-------------------------|-------------------------|--------------------------|
|-------------------------|-------------------------|--------------------------|
|-5-5-5-5-5-5-5-5-5-5-5-5-|-3-3-3-3-3-3-3-3-3-3-3-3-|-1-1-1-1-1-1-1-1-1-1-1-1--|
|
| Gtr II
| S S S S S S S S S S S S   S S S S S S S S S S S S   S S S S S S S S S S S S
|-------------------------|-------------------------|--------------------------|
|-------------------------|-------------------------|--------------------------|
|-------------------------|-------------------------|--------------------------|
|-------------------------|-------------------------|--------------------------|
|-0-0-0-0-0-0-0-0-0-0-0-0-|-0-0-0-0-0-0-0-0-0-0-0-0-|-0-0-0-0-0-0-0-0-0-0-0-0--|
|-0-0-0-0-0-0-0-0-0-0-0-0-|-0-0-0-0-0-0-0-0-0-0-0-0-|-0-0-0-0-0-0-0-0-0-0-0-0--|


  S S S S S S S S S S S S   S S S S S S S S S S S S   S S S S S S S S S S S S
|-------------------------|-------------------------|--------------------------|
|-------------------------|-------------------------|--------------------------|
|-------------------------|-------------------------|--------------------------|
|-0-0-0-0-0-0-0-0-0-0-0-0-|-5-5-5-5-5-5-5-5-5-5-5-5-|-3-3-3-3-3-3-3-3-3-3-3-3--|
|
| S S S S S S S S S S S S   S S S S S S S S S S S S   S S S S S S S S S S S S
|-------------------------|-------------------------|--------------------------|
|-------------------------|-------------------------|--------------------------|
|-------------------------|-------------------------|--------------------------|
|-------------------------|-------------------------|--------------------------|
|-0-0-0-0-0-0-0-0-0-0-0-0-|-0-0-0-0-0-0-0-0-0-0-0-0-|-0-0-0-0-0-0-0-0-0-0-0-0--|
|-0-0-0-0-0-0-0-0-0-0-0-0-|-0-0-0-0-0-0-0-0-0-0-0-0-|-0-0-0-0-0-0-0-0-0-0-0-0--|


  S S S S S S S S S S S S   S S S S S S S S S S S S
|-------------------------|-------------------------|
|-------------------------|-------------------------|
|-------------------------|-------------------------|
|-1-1-1-1-1-1-1-1-1-1-1-1-|-0-0-0-0-0-0-0-0-0-0-0-0-|
|
| S S S S S S S S S S S S   S S S S S S S S S S S S
|-------------------------|-------------------------|
|-------------------------|-------------------------|
|-------------------------|-------------------------|
|-------------------------|-------------------------|
|-0-0-0-0-0-0-0-0-0-0-0-0-|-0-0-0-0-0-0-0-0-0-0-0-0-|
|-0-0-0-0-0-0-0-0-0-0-0-0-|-0-0-0-0-0-0-0-0-0-0-0-0-|


  Q=67
 4/4
  S S S S S S S S S S S S S S S S   S S S S S S S S S S S S S S S S
|---------------------------------|----------------------------------|
|---------------------------------|----------------------------------|
|---------------------------------|----------------------------------|
|-5-5-5-5-5-5-5-5-3-3-3-3-3-3-3-3-|-1-1-1-1-1-1-1-1-3-3-3-3-3-3-3-3--|
|
| S S S S S S S S S S S S S S S S   S S S S S S S S S S S S S S S S
|---0---0---0---0---0---0---0-0-0-|---0---0---0---0---0---0---0-0-0--|
|---------------------------------|----------------------------------|
|-----2---2---2---2---2---2-------|-----2---2---2---2---2---2--------|
|---------------------------------|----------------------------------|
|-4-------------------------------|-4--------------------------------|
|-0-------0-------0-------0-------|-0-------0-------0-------0--------|


  S S S S S S S S S S S S S S S S   S S S S S S S S S S S S S S S S
|---------------------------------|---------------------------------|
|---------------------------------|---------------------------------|
|---------------------------------|---------------------------------|
|-5-5-5-5-5-5-5-5-3-3-3-3-3-3-3-3-|-1-1-1-1-1-1-1-1-3-3-3-3-3-3-3-3-|
|
| S S S S S S S S S S S S S S S S   S S S S S S S S S S S S S S S S
|---0---0---0---0---0---0---0-0-0-|---0---0---0---0---0---0---0-0-0-|
|---------------------------------|---------------------------------|
|-----2---2---2---2---2---2-------|-----2---2---2---2---2---2-------|
|---------------------------------|---------------------------------|
|-4-------------------------------|-4-------------------------------|
|-0-------0-------0-------0-------|-0-------0-------0-------0-------|


  S S S S S S S S S S S S S S S S   S S S S S S S S S S S S S S S S
|---------------------------------|---------------------------------|
|---------------------------------|---------------------------------|
|---------------------------------|---------------------------------|
|-5-5-5-5-5-5-5-5-3-3-3-3-3-3-3-3-|-1-1-1-1-1-1-1-1-3-3-3-3-3-3-3-3-|
|
| S S S S S S S S S S S S S S S S   S S S S S S S S S S S S S S S S
|---0---0---0---0---0---0---0-0-0-|---0---0---0---0---0---0---0-0-0-|
|---------------------------------|---------------------------------|
|-----2---2---2---2---2---2-------|-----2---2---2---2---2---2-------|
|---------------------------------|---------------------------------|
|-4-------------------------------|-4-------------------------------|
|-0-------0-------0-------0-------|-0-------0-------0-------0-------|


  S S S S S S S S S S S S S S S S   S S S S S S S S S S S S S S S S
|---------------------------------|---------------------------------|
|---------------------------------|---------------------------------|
|---------------------------------|---------------------------------|
|-5-5-5-5-5-5-5-5-3-3-3-3-3-3-3-3-|-1-1-1-1-1-1-1-1-3-3-3-3-3-3-3-3-|
|
| S S S S S S S S S S S S S S S S   S S S S S S S S S S S S S S S S
|---0---0---0---0---0---0---0-0-0-|---0---0---0---0---0---0---0-0-0-|
|---------------------------------|---------------------------------|
|-----2---2---2---2---2---2-------|-----2---2---2---2---2---2-------|
|---------------------------------|---------------------------------|
|-4-------------------------------|-4-------------------------------|
|-0-------0-------0-------0-------|-0-------0-------0-------0-------|


  S S S S S S S S S S S S S S S S   S S S S S S S S S S S S S S S S
|---------------------------------|---------------------------------|
|---------------------------------|---------------------------------|
|---------------------------------|---------------------------------|
|-5-5-5-5-5-5-5-5-3-3-3-3-3-3-3-3-|-1-1-1-1-1-1-1-1-3-3-3-3-3-3-3-3-|
|
| S S S S S S S S S S S S S S S S   S S S S S S S S S S S S S S S S
|---0---0---0---0---0---0---0-0-0-|---0---0---0---0---0---0---0-0-0-|
|---------------------------------|---------------------------------|
|-----2---2---2---2---2---2-------|-----2---2---2---2---2---2-------|
|---------------------------------|---------------------------------|
|-4-------------------------------|-4-------------------------------|
|-0-------0-------0-------0-------|-0-------0-------0-------0-------|


  S S S S S S S S S S S S S S S S   S S S S S S S S S S S S S S S S
|---------------------------------|---------------------------------|
|---------------------------------|---------------------------------|
|---------------------------------|---------------------------------|
|-5-5-5-5-5-5-5-5-3-3-3-3-3-3-3-3-|-1-1-1-1-1-1-1-1-3-3-3-3-3-3-3-3-|
|
| S S S S S S S S S S S S S S S S   S S S S S S S S S S S S S S S S
|---0---0---0---0---0---0---0-0-0-|---0---0---0---0---0---0---0-0-0-|
|---------------------------------|---------------------------------|
|-----2---2---2---2---2---2-------|-----2---2---2---2---2---2-------|
|---------------------------------|---------------------------------|
|-4-------------------------------|-4-------------------------------|
|-0-------0-------0-------0-------|-0-------0-------0-------0-------|


  S S S S S S S S S S S S S S S S   S S S S S S S S S S S S S S S S
|---------------------------------|---------------------------------|
|---------------------------------|---------------------------------|
|---------------------------------|---------------------------------|
|-5-5-5-5-5-5-5-5-5-5-5-5-5-5-5-5-|-8-8-8-8-8-8-8-8-8-8-8-8-8-8-8-8-|
|
| S S S S S S S S S S S S S S S S   S S S S S S S S S S S S S S S S
|-0-0-0-0---------0-0---0---------|-0-0-0-0---------0-0---0---------|
|---------------------------------|---------------------------------|
|---------2---2-------2---2---2---|---------2---2-------2---2---2---|
|---------------------------------|---------------------------------|
|---------------------------------|---------------------------------|
|---------0---------------0-------|---------0---------------0-------|


  S S S S S S S S S S S S S S S S   S S S S S S S S S S S S S S S S
|---------------------------------|---------------------------------|
|---------------------------------|---------------------------------|
|---------------------------------|---------------------------------|
|-3-3-3-3-3-3-3-3-3-3-3-3-3-3-3-3-|-1-1-1-1-1-1-1-1-1-1-1-1-1-1-1-1-|
|
| S S S S S S S S S S S S S S S S   S S S S S S S S S S S S S S S S
|-0-0-0-0---------0-0---0---------|-0-0-0-0---------0-0---0---------|
|---------------------------------|---------------------------------|
|---------2---2-------2---2---2---|---------2---2-------2---2---2---|
|---------------------------------|---------------------------------|
|---------------------------------|---------------------------------|
|---------0---------------0-------|---------0---------------0-------|


  S S S S S S S S S S S S S S S S   S S S S S S S S S S S S S S S S
|---------------------------------|---------------------------------|
|---------------------------------|---------------------------------|
|---------------------------------|---------------------------------|
|-5-5-5-5-5-5-5-5-5-5-5-5-5-5-5-5-|-8-8-8-8-8-8-8-8-8-8-8-8-8-8-8-8-|
|
| S S S S S S S S S S S S S S S S   S S S S S S S S S S S S S S S S
|-0-0-0-0---------0-0---0---------|-0-0-0-0---------0-0---0---------|
|---------------------------------|---------------------------------|
|---------2---2-------2---2---2---|---------2---2-------2---2---2---|
|---------------------------------|---------------------------------|
|---------------------------------|---------------------------------|
|---------0---------------0-------|---------0---------------0-------|


  S S S S S S S S S S S S S S S S   S S S S S S S S S S S S S S S S
|---------------------------------|---------------------------------|
|---------------------------------|---------------------------------|
|---------------------------------|---------------------------------|
|-3-3-3-3-3-3-3-3-3-3-3-3-3-3-3-3-|-1-1-1-1-1-1-1-1-1-1-1-1-1-1-1-1-|
|
| S S S S S S S S S S S S S S S S   S S S S S S S S S S S S S S S S
|-0-0-0-0---------0-0---0---------|-0-0-0-0---------0-0---0---------|
|---------------------------------|---------------------------------|
|---------2---2-------2---2---2---|---------2---2-------2---2---2---|
|---------------------------------|---------------------------------|
|---------------------------------|---------------------------------|
|---------0---------------0-------|---------0---------------0-------|


  S S S S S S S S S S S S S S S S   S S S S S S S S S S S S S S S S
|---------------------------------|---------------------------------|
|---------------------------------|---------------------------------|
|---------------------------------|---------------------------------|
|-5-5-5-5-5-5-5-5-5-5-5-5-5-5-5-5-|-8-8-8-8-8-8-8-8-8-8-8-8-8-8-8-8-|
|
| S S S S S S S S S S S S S S S S   S S S S S S S S S S S S S S S S
|-0-0-0-0---------0-0---0---------|-0-0-0-0---------0-0---0---------|
|---------------------------------|---------------------------------|
|---------2---2-------2---2---2---|---------2---2-------2---2---2---|
|---------------------------------|---------------------------------|
|---------------------------------|---------------------------------|
|---------0---------------0-------|---------0---------------0-------|


  S S S S S S S S S S S S S S S S   S S S S S S S S S S S S S S S S
|---------------------------------|---------------------------------|
|---------------------------------|---------------------------------|
|---------------------------------|---------------------------------|
|-3-3-3-3-3-3-3-3-3-3-3-3-3-3-3-3-|-1-1-1-1-1-1-1-1-1-1-1-1-1-1-1-1-|
|
| S S S S S S S S S S S S S S S S   S S S S S S S S S S S S S S S S
|-0-0-0-0---------0-0---0---------|-0-0-0-0---------0-0---0---------|
|---------------------------------|---------------------------------|
|---------2---2-------2---2---2---|---------2---2-------2---2---2---|
|---------------------------------|---------------------------------|
|---------------------------------|---------------------------------|
|---------0---------------0-------|---------0---------------0-------|


  S S S S S S S S S S S S S S S S   S S S S S S S S S S S S S S S S
|---------------------------------|---------------------------------|
|---------------------------------|---------------------------------|
|---------------------------------|---------------------------------|
|-5-5-5-5-5-5-5-5-5-5-5-5-5-5-5-5-|-8-8-8-8-8-8-8-8-8-8-8-8-8-8-8-8-|
|
| S S S S S S S S S S S S S S S S   S S S S S S S S S S S S S S S S
|-0-0-0-0---------0-0---0---------|-0-0-0-0---------0-0---0---------|
|---------------------------------|---------------------------------|
|---------2---2-------2---2---2---|---------2---2-------2---2---2---|
|---------------------------------|---------------------------------|
|---------------------------------|---------------------------------|
|---------0---------------0-------|---------0---------------0-------|


  S S S S S S S S S S S S S S S S   S S S S S S S S S S S S S S S S
|---------------------------------|---------------------------------|
|---------------------------------|---------------------------------|
|---------------------------------|---------------------------------|
|-3-3-3-3-3-3-3-3-3-3-3-3-3-3-3-3-|-1-1-1-1-1-1-1-1-1-1-1-1-1-1-1-1-|
|
| S S S S S S S S S S S S S S S S   S S S S S S S S S S S S S S S S
|-0-0-0-0---------0-0---0---------|-0-0-0-0---------0-0---0---------|
|---------------------------------|---------------------------------|
|---------2---2-------2---2---2---|---------2---2-------2---2---2---|
|---------------------------------|---------------------------------|
|---------------------------------|---------------------------------|
|---------0---------------0-------|---------0---------------0-------|


  S S S S S S S S S S S S S S S S   S S S S S S S S S S S S S S S S
|---------------------------------|---------------------------------|
|---------------------------------|---------------------------------|
|---------------------------------|---------------------------------|
|-5-5-5-5-5-5-5-5-5-5-5-5-5-5-5-5-|-8-8-8-8-8-8-8-8-8-8-8-8-8-8-8-8-|
|
| S S S S S S S S S S S S S S S S   S S S S S S S S S S S S S S S S
|-0-0-0-0---------0-0---0---------|-0-0-0-0---------0-0---0---------|
|---------------------------------|---------------------------------|
|---------2---2-------2---2---2---|---------2---2-------2---2---2---|
|---------------------------------|---------------------------------|
|---------------------------------|---------------------------------|
|---------0---------------0-------|---------0---------------0-------|


  S S S S S S S S S S S S S S S S   S S S S S S S S S S S S S S S S
|---------------------------------|---------------------------------|
|---------------------------------|---------------------------------|
|---------------------------------|---------------------------------|
|-3-3-3-3-3-3-3-3-3-3-3-3-3-3-3-3-|-1-1-1-1-1-1-1-1-1-1-1-1-1-1-1-1-|
|
| S S S S S S S S S S S S S S S S   S S S S S S S S S S S S S S S S
|-0-0-0-0---------0-0---0---------|-0-0-0-0---------0-0---0---------|
|---------------------------------|---------------------------------|
|---------2---2-------2---2---2---|---------2---2-------2---2---2---|
|---------------------------------|---------------------------------|
|---------------------------------|---------------------------------|
|---------0---------------0-------|---------0---------------0-------|


  S S S S S S S S S S S S S S S S   S S S S S S S S S S S S S S S S
|---------------------------------|---------------------------------|
|---------------------------------|---------------------------------|
|---------------------------------|---------------------------------|
|-5-5-5-5-5-5-5-5-5-5-5-5-5-5-5-5-|-8-8-8-8-8-8-8-8-8-8-8-8-8-8-8-8-|
|
| S S S S S S S S S S S S S S S S   S S S S S S S S S S S S S S S S
|-0-0-0-0---------0-0---0---------|-0-0-0-0---------0-0---0---------|
|---------------------------------|---------------------------------|
|---------2---2-------2---2---2---|---------2---2-------2---2---2---|
|---------------------------------|---------------------------------|
|---------------------------------|---------------------------------|
|---------0---------------0-------|---------0---------------0-------|


  S S S S S S S S S S S S S S S S   S S S S S S S S S S S S S S S S
|---------------------------------|---------------------------------*|
|---------------------------------|---------------------------------*|
|---------------------------------|---------------------------------*|
|-3-3-3-3-3-3-3-3-3-3-3-3-3-3-3-3-|-1-1-1-1-1-1-1-1-1-1-1-1-1-1-1-1-*|
|
| S S S S S S S S S S S S S S S S   S S S S S S S S S S S S S S S S
|-0-0-0-0---------0-0---0---------|-0-0-0-0---------0-0---0---------*|
|---------------------------------|---------------------------------*|
|---------2---2-------2---2---2---|---------2---2-------2---2---2---*|
|---------------------------------|---------------------------------*|
|---------------------------------|---------------------------------*|
|---------0---------------0-------|---------0---------------0-------*|



Duration Legend
---------------
W - whole; H - half; Q - quarter; E - 8th; S - 16th; T - 32nd; X - 64th; a - acciaccatura
+ - note tied to previous; . - note dotted; .. - note double dotted
Uncapitalized letters represent notes that are staccato (1/2 duration)
Irregular groupings are notated above the duration line
Duration letters will always appear directly above the note/fret number it represents the
duration for.  Duration letters with no fret number below them represent rests.  Multi-
bar rests are notated in the form Wxn, where n is the number of bars to rest for.  Low
melody durations appear below the staff

Tablature Legend
----------------
 h   - hammer-on
 p   - pull-off
 b   - bend
 pb  - pre-bend
 r   - bend release (if no number after the r, then release immediately)
 /\  - slide into or out of (from/to "nowhere")
 s   - legato slide
 S   - shift slide
 - natural harmonic
[n]  - artificial harmonic
n(n) - tapped harmonic
 ~   - vibrato
 tr  - trill
 T   - tap
 TP  - trem. picking
 PM  - palm muting
\n/  - tremolo bar dip; n = amount to dip
 \n  - tremolo bar down
 n/  - tremolo bar up
/n\  - tremolo bar inverted dip
 =   - hold bend; also acts as connecting device for hammers/pulls
 <> - volume swell (louder/softer)
 x   - on rhythm slash represents muted slash
 o   - on rhythm slash represents single note slash

Misc Legend
-----------
 |  - bar
||  - double bar
||o - repeat start
o|| - repeat end
*|  - double bar (ending)
 :  - bar (freetime)
 $  - Segno
 &  - Coda
Tempo markers -  = BPM(8/16=s8/s16), where s8 = swing 8ths, s16 = swing 16ths


            
            
Suggest correction
Creating personal tab
Creating personal tab
You can edit any tab online and save it as your Personal.

You can edit, replace or remove any tab part or add personal notes – all changes will be seen only by you.

Personal tabs can be accessed anytime from any device, even offline.
Learn more »
Give kudos to tab author, rate the tab!
1 2 3 4 5
comments
print report bad tab
guest
You may want to rate the tab now too:
select rating
Wanna post a correction for this tab? Suggest correction