Oops, an error
Loading. Please wait.

Lips Of Deceit bass

version 1
version 1

Whole song

Interactive

4,386 views 1 this week
no commentswrite comment
1 2 3 4 5
x 5
add to favorites
×
Save as Personal and add changes to this tab that will be seen only by you. Learn more ›
×
You can save this tab as Personal to edit and correct it or add notes. All changes will be seen only by you. Learn more »
launch autoscroll
font size
0
reset
guitar tuner
edit
Autoscroll
slow
fast
+/-
esc
set tempo
stop
Band- Avenged Sevenfold
Song- Lips Of Deceit

+Intro pt.1+ (start after 1st drum beat)
G|-------------------------------------------------------------------------------|
D|-------------------------------------------------------------------------------|
A|--0-3/1~-----8~--8-7—3-5~---7-8-7—-1~-—1-0----------3~--3-0000000000000000000~-|
D|-------------------------------------------6-5-3~------------------------------|

+Intro pt.2+
G|----------------------------------------|
D|----------------------------------------|
A|--555555-00-111111-0-88888888-77-357873-|
D|----------------------------------------|

G|-------------------------------------------------------------|
D|-------------------------------------------------------------|
A|--555555-00-111111-0------------3333-0000000000000000000000~-|
D|---------------------5-33333333------------------------------|

Guitar solo (till 1.19)

+Verse 1+ (fast)
G|-------------------------------------------------------------|
D|-------------------------------------------------------------|
A|--0000003311111100---33—000000--------33555555887788101012~--| x3
D|------------------555—55------53000000-----------------------|
(2nd and 3rd time in different rhythm)

+... Then+
G|-------------------------------|
D|-------------------------------|
A|--12-10-8-10-8-7-5-7-8-7-5-3-5-|
D|-------------------------------|

+Verse 2 pt.1+ (fast)			   +Verse 2 pt.2+
G|----------------------------------||---------------------------------------------|
D|----------------------------------||--------------------------------------232----|
A|--555555778888880011111111----4444||--5555557788888888101010101010---3333-----3--| x4
D|--------------------------3333----||---------------------------------------------|

+Interlude+
G|--------------------------    |---------------------|
D|--------------------------    |---------------------|
A|-------3-1----1-3----3-5—- x4 |---------------------|
D|--0-----------------------    |--0----guitar-----0~-|

G|-------------|
D|-------------|
A|---1^-3^-5---| x4
D|0^-----------|

G|-----------------------------------------------|
D|-----------------------------------------------|
A|--5--5--5—-5-333-5—-5—-5—-5-333- x2 ---5-6-5---|
D|-----------------------------------------------|

G|-----------------------------| |-------------------------|
D|-----------------------------| |-------------------------|
A|--5-5----------- x4 –5-5-6-5-| |--5-5-------5------------| x3
D|------6-5-03530--------------| |--------6--(^ 0r...)--0--|

+End+ (fast)
G|---------------|
D|---------------|
A|--0^-1^--------| x3
D|0^-----333222--|

(Last one)
G|---------------|
D|---------------|
A|--0^-1^--------|
D|0^-----3332220-|

            
            
Suggest correction
Creating personal tab
Creating personal tab
You can edit any tab online and save it as your Personal.

You can edit, replace or remove any tab part or add personal notes – all changes will be seen only by you.

Personal tabs can be accessed anytime from any device, even offline.
Learn more »
comments
print report bad tab
guest
You may want to rate the tab now too:
select rating
Wanna post a correction for this tab? Suggest correction