Oops, an error
Loading. Please wait.

Mia tab

version 2
version 2

Whole song

8,244 views 33 this week
1 commentread comment
1 2 3 4 5
2 more votes to show rating
add to favorites
×
Save as Personal and add changes to this tab that will be seen only by you. Learn more ›
×
You can save this tab as Personal to edit and correct it or add notes. All changes will be seen only by you. Learn more »
launch autoscroll
font size
0
reset
how to read this tab
guitar tuner
backing track
0:00
0:00
edit
Autoscroll
slow
fast
+/-
esc
set tempo
stop
Author
Difficulty

Duration Legend
---------------
W - whole
H - half
Q - quarter
E - 8th
S - 16th
T - 32nd
X - 64th
. - note dotted
|-n-|  - n-tuplets


Tablature Legend
----------------
L - tied note
x - dead note
g - grace note
(n) - ghost note
> - accentuded note
NH - natural harmonic
AH - artificial harmonic
TH - tapped harmonic
SH - semi harmonic
PH - pitch harmonic
h - hammer on
p - pull off
b - bend
br - bendRelease
pb - preBend
pbr - preBendRelease
brb - bendReleaseBend
\n/ - tremolo bar dip
\n - tremolo bar dive
-/n - tremolo bar Release up
/n\ - tremolo bar inverted dip
/n - tremolo bar return
-\n - tremolo bar Release down
S - shift slide
s - legato slide
/ -  slide into from below or out of upwards
\ -  slide into from above or out of downwards
~ - vibrato
W - wide vibrato
tr - trill
TP - tremolo picking
T - tapping
S - slap
P - pop
< - fade in
^ - brush up
v - brush down


                        M.I.A.                          


                                       Avenged Sevenfold
Guitar 1



     Q     Q     Q        Q     Q     Q     
E||-------------------|--10----------------|
B||-------10----------|--------10----------|
G||-------------10----|--------------10----|
D||-------------------|--------------------|
A||--8----------------|--------------------|
D||-------------------|--------------------|


  Q    Q    Q       Q    Q    Q       Q    Q    Q     
-----------------|-------5---------|-----------------|
-------6---------|--8---------6----|-------8---------|
------------7----|-----------------|------------9----|
-----------------|-----------------|-----------------|
--5--------------|-----------------|--7--------------|
-----------------|-----------------|-----------------|


   Q    Q    Q       Q     Q    Q     
------------------|------------------|
--10----8---------|------------------|
-------------9----|--7---------------|
------------------|-------10----7----|
------------------|------------------|
------------------|------------------|


   Q     Q     Q       Q     Q     Q     
--------------------|-------------------|
--------------------|-------10----------|
--/9----------------|-------------10----|
--------11----------|-------------------|
--------------10----|--8----------------|
--------------------|-------------------|


   Q     Q     Q       Q    Q    Q     
--10----------------|-----------------|
--------10----------|-------6---------|
--------------10----|------------7----|
--------------------|-----------------|
--------------------|--5--------------|
--------------------|-----------------|


  Q    Q    Q       Q    Q    Q        Q    Q    Q     
-------5---------|-----------------|------------------|
--8---------6----|-------8---------|--10----8---------|
-----------------|------------9----|-------------9----|
-----------------|-----------------|------------------|
-----------------|--7--------------|------------------|
-----------------|-----------------|------------------|


  Q     Q    Q        Q     Q     Q     
------------------|--------------------|
------------------|--------------------|
--7---------------|--/9----------------|
-------10----7----|--------11----------|
------------------|--------------10----|
------------------|--------------------|


  Q     Q     Q        Q     Q     Q     
-------------------|--10----------------|
-------10----------|--------10----------|
-------------10----|--------------10----|
-------------------|--------------------|
--8----------------|--------------------|
-------------------|--------------------|


  Q    Q    Q       Q    Q    Q       Q    Q    Q     
-----------------|-------5---------|-----------------|
-------6---------|--8---------6----|-------8---------|
------------7----|-----------------|------------9----|
-----------------|-----------------|-----------------|
--5--------------|-----------------|--7--------------|
-----------------|-----------------|-----------------|


   Q    Q    Q       Q     Q    Q     
------------------|------------------|
--10----8---------|------------------|
-------------9----|--7---------------|
------------------|-------10----7----|
------------------|------------------|
------------------|------------------|


   Q     Q     Q       Q     Q     Q     
--------------------|-------------------|
--------------------|-------10----------|
--/9----------------|-------------10----|
--------11----------|-------------------|
--------------10----|--8----------------|
--------------------|-------------------|


   Q     Q     Q       Q    Q    Q     
--10----------------|-----------------|
--------10----------|-------6---------|
--------------10----|------------7----|
--------------------|-----------------|
--------------------|--5--------------|
--------------------|-----------------|


  Q    Q    Q       Q    Q    Q        Q    Q    Q     
-------5---------|-----------------|------------------|
--8---------6----|-------8---------|--10----8---------|
-----------------|------------9----|-------------9----|
-----------------|-----------------|------------------|
-----------------|--7--------------|------------------|
-----------------|-----------------|------------------|


  Q     Q    Q        Q     Q     Q     
------------------|--------------------|
------------------|--------------------|
--7---------------|--/9----------------|
-------10----7----|--------11----------|
------------------|--------------10----|
------------------|--------------------|


  Q     Q     Q        Q     Q     Q     
-------------------|--10----------------|
-------10----------|--------10----------|
-------------10----|--------------10----|
-------------------|--------------------|
--8----------------|--------------------|
-------------------|--------------------|


  Q    Q    Q       Q    Q    Q       Q    Q    Q     
-----------------|-------5---------|-----------------|
-------6---------|--8---------6----|-------8---------|
------------7----|-----------------|------------9----|
-----------------|-----------------|-----------------|
--5--------------|-----------------|--7--------------|
-----------------|-----------------|-----------------|


   Q    Q    Q       Q     Q    Q     
------------------|------------------|
--10----8---------|------------------|
-------------9----|--7---------------|
------------------|-------10----7----|
------------------|------------------|
------------------|------------------|


   Q     Q     Q       Q     Q     Q     
--------------------|-------------------|
--------------------|-------10----------|
--/9----------------|-------------10----|
--------11----------|-------------------|
--------------10----|--8----------------|
--------------------|-------------------|


   Q     Q     Q       Q    Q    Q     
--10----------------|-----------------|
--------10----------|-------6---------|
--------------10----|------------7----|
--------------------|-----------------|
--------------------|--5--------------|
--------------------|-----------------|


  Q    Q    Q       Q    Q    Q        Q    Q    Q     
-------5---------|-----------------|------------------|
--8---------6----|-------8---------|--10----8---------|
-----------------|------------9----|-------------9----|
-----------------|-----------------|------------------|
-----------------|--7--------------|------------------|
-----------------|-----------------|------------------|


  Q     Q    Q        Q     Q     Q     
------------------|--------------------|
------------------|--------------------|
--7---------------|--/9----------------|
-------10----7----|--------11----------|
------------------|--------------10----|
------------------|--------------------|


  Q     H           H.            
-----------------|---------------|
-------10--------|--L------------|
-------10--------|--L------------|
-----------------|---------------|
--8--------------|---------------|
-----------------|---------------|


  Q      Q     E   E  E   E    
------------------------------|
------------------10-----10~--|
-------/10----12--------------|
------------------------------|
------------------------------|
------------------------------|


  Q     Q     E   E  E   E      W                 
-----------------------------|-------------------|
--L----------10--11----------|-------------------|
-------10---------------12~--|--L----------------|
-----------------------------|-------------------|
-----------------------------|-------------------|
-----------------------------|-------------------|


  Q    E   E   E    E  E   E   
------------------------------|
------------------------------|
--L----L\-----12br--L--9--10--|
------------------------------|
------------------------------|
------------------------------|


  Q      Q     E   E  E   E    
------------------------------|
------------------10-----10~--|
--L----/10----12--------------|
------------------------------|
------------------------------|
------------------------------|


  Q     Q     E   E   E   E    
------------------------------|
--L----------10--11---x-------|
-------10----------------10~--|
------------------------------|
------------------------------|
------------------------------|


   E   E   E   E  E   E   Q      
--------------------------------|
--10-----------------10---------|
------12--10--12--L------10~----|
--------------------------------|
--------------------------------|
--------------------------------|


  E    E   E   E   E    E  Q      
--------------10--13br--L--L\----|
----------11---------------------|
--L--/10-------------------------|
---------------------------------|
---------------------------------|
---------------------------------|


  Q      Q     E   E  E   E    
------------------------------|
------------------10-----10~--|
-------/10----12--------------|
------------------------------|
------------------------------|
------------------------------|


  Q     Q     E   E  E   E      W                 
-----------------------------|-------------------|
--L----------10--11----------|-------------------|
-------10---------------12~--|--L----------------|
-----------------------------|-------------------|
-----------------------------|-------------------|
-----------------------------|-------------------|


  Q    E   E   E    E  E   E   
------------------------------|
------------------------------|
--L----L\-----12br--L--9--10--|
------------------------------|
------------------------------|
------------------------------|


  Q      Q     E   E  E   E    
------------------------------|
------------------10-----10~--|
--L----/10----12--------------|
------------------------------|
------------------------------|
------------------------------|


  Q     Q     E   E   E   E    
------------------------------|
--L----------10--11---x-------|
-------10----------------10~--|
------------------------------|
------------------------------|
------------------------------|


   E   E   E   E  E   E   Q      
--------------------------------|
--10-----------------10---------|
------12--10--12--L------10~----|
--------------------------------|
--------------------------------|
--------------------------------|


  E    E   E   E   E    E  Q      
--------------10--13br--L--L\----|
----------11---------------------|
--L--/10-------------------------|
---------------------------------|
---------------------------------|
---------------------------------|


  E  E  Q    H           H        Q    E  E   
----------------------|----------------------|
----------------------|----------------------|
----------------------|----------------------|
--0--0----------------|----------------0--0--|
--0--0----------------|----------------0--0--|
--0--0----------------|----------------0--0--|


  H        Q    E   E     E  E  E  E  E  E  E  E   
-----------------------|--------------------------|
-----------------------|--------------------------|
-----------------------|--------------------------|
-------------------/8--|--L--7--5-----------5--5--|
-----------------------|-----------5-----5-----5--|
-----------------------|--------------5--------5--|


  W                   W                 
-------------------|-------------------|
-------------------|-------------------|
-------------------|-------------------|
-------------------|-------------------|
-------------------|-------------------|
-------------------|-------------------|


  E  E  Q    Q    E   E     E  E  E  E  E  E  E  E   
-------------------------|--------------------------|
-------------------------|--------------------------|
--5--5-------------------|-----------5--L-----------|
--5--5---------------/3--|--L--2--3--------3--2--3--|
--3--3-------------------|--------------------------|
-------------------------|--------------------------|


  E  E  Q    H           H        Q    E  E   
----------------------|----------------------|
----------------------|----------------------|
----------------------|----------------------|
--0--0----------------|----------------0--0--|
--0--0----------------|----------------0--0--|
--0--0----------------|----------------0--0--|


  H        Q    E   E     E  E  E  E  E  E  E  E   
-----------------------|--------------------------|
-----------------------|--------------------------|
-----------------------|--------------------------|
-------------------/8--|--L--7--5-----------5--5--|
-----------------------|-----------5-----5-----5--|
-----------------------|--------------5--------5--|


  W                   W                 
-------------------|-------------------|
-------------------|-------------------|
-------------------|-------------------|
-------------------|-------------------|
-------------------|-------------------|
-------------------|-------------------|


  E  E  Q    Q    E   E     E  E  E  E  E  E  E  E   
-------------------------|--------------------------|
-------------------------|--------------------------|
--5--5-------------------|-----------5--L-----------|
--5--5---------------/3--|--L--2--3--------3--2--3--|
--3--3-------------------|--------------------------|
-------------------------|--------------------------|


             PH       PM PM    PM PM PM PM PM PM PM PM  
  E  E  E    E   Q    E  E     E  E  E  E  E  E  E  E   
----------------------------|--------------------------|
----------------------------|--------------------------|
----------------------------|--------------------------|
----------------------------|--------------------------|
----------------------0--0--|--0--0--0--0--0--0--0--0--|
--6--5--0--<>3b--L----0--0--|--0--0--0--0--0--0--0--0--|


             PH       PM PM    PM PM PM PM PM PM PM PM  
  E  E  E    E   Q    E  E     E  E  E  E  E  E  E  E   
----------------------------|--------------------------|
----------------------------|--------------------------|
----------------------------|--------------------------|
----------------------------|--------------------------|
----------------------0--0--|--0--0--0--0--0--0--0--0--|
--6--5--0--<>3b--L----0--0--|--0--0--0--0--0--0--0--0--|


  Q    E  E  E  E  E  E     E  E  Q    E  E  Q      
-------------------------|-------------------------|
-------------------------|-------------------------|
--3----3--3--3--3--x-----|-------------------------|
--3----3--3--3--3--x--3--|--L--3--3----3--3--3S----|
--1----1--1--1--1--x--3--|--L--3--3----3--3--3S----|
----------------------3--|--L--3--3----3--3--3S----|


   Q     E   E   E   E   E   E   
--------------------------------|
--------------------------------|
--------------------------------|
--10----10--10--10--10---x--12--|
---7-----7---7---7---7---x---8--|
---7-----7---7---7---7---x---8--|


   E   E   Q     E   E   Q      
-------------------------------|
-------------------------------|
-------------------------------|
---L--12--12----12--12--12\----|
---L---8---8-----8---8---8\----|
---L---8---8-----8---8---8\----|


             PH       PM PM    PM PM PM PM PM PM PM PM  
  E  E  E    E   Q    E  E     E  E  E  E  E  E  E  E   
----------------------------|--------------------------|
----------------------------|--------------------------|
----------------------------|--------------------------|
----------------------------|--------------------------|
----------------------0--0--|--0--0--0--0--0--0--0--0--|
--6--5--0--<>3b--L----0--0--|--0--0--0--0--0--0--0--0--|


             PH       PM PM    PM PM PM PM PM PM PM PM  
  E  E  E    E   Q    E  E     E  E  E  E  E  E  E  E   
----------------------------|--------------------------|
----------------------------|--------------------------|
----------------------------|--------------------------|
----------------------------|--------------------------|
----------------------0--0--|--0--0--0--0--0--0--0--0--|
--6--5--0--<>3b--L----0--0--|--0--0--0--0--0--0--0--0--|


  Q    E  E  E  E  E  E     E  E  Q    E  E  Q      
-------------------------|-------------------------|
-------------------------|-------------------------|
--3----3--3--3--3--x-----|-------------------------|
--3----3--3--3--3--x--3--|--L--3--3----3--3--3S----|
--1----1--1--1--1--x--3--|--L--3--3----3--3--3S----|
----------------------3--|--L--3--3----3--3--3S----|


   Q     E   E   E   E   E   E   
--------------------------------|
--------------------------------|
--------------------------------|
--10----10--10--10--10---x--12--|
---7-----7---7---7---7---x---8--|
---7-----7---7---7---7---x---8--|


   E   E   E   E   E  E  Q     
------------------------------|
------------------------------|
------------------------------|
---L--12--12--12--12----------|
---L---8---8---8---8----------|
---L---8---8---8---8----------|


  Q    E  E  E  E  E  E     E  E  Q    E  E  Q      
-------------------------|-------------------------|
-------------------------|-------------------------|
--7----7--7--L--7--x--3--|--L--3--3----3--3--3S----|
--7----7--7--L--7--x--3--|--L--3--3----3--3--3S----|
--5----5--5--L--5--x--1--|--L--1--1----1--1--1S----|
-------------------------|-------------------------|


  Q    E  E  E  E  E  E     E  E  Q    E  E  E  E   
-------------------------|-------------------------|
-------------------------|-------------------------|
--5----5--5--L--5--x-----|-------------------------|
--5----5--5--L--5--x--3--|--L--3--3----3--3--3--3--|
--3----3--3--L--3--x--3--|--L--3--3----3--3--3--3--|
----------------------3--|--L--3--3----3--3--3--3--|


  Q    E  E  E  E  E  E     E  E  E  E  E  E  Q      
-------------------------|--------------------------|
-------------------------|--------------------------|
----------------------2--|--L--2--x--3--L--3--3S----|
--5----5--5--L--5--x--2--|--L--2--x--3--L--3--3S----|
--5----5--5--L--5--x--0--|--L--0--x--1--L--1--1S----|
--5----5--5--L--5--x-----|--------------------------|


  E  E  E  E  E  E  E  E     E  E  E  E  E  E  Q      
--------------------------|--------------------------|
--------------------------|--------------------------|
--5--5--5--5--L--5--5--5--|--L--5--5--5--5--5--5S----|
--5--5--5--5--L--5--5--5--|--L--5--5--5--5--5--5S----|
--3--3--3--3--L--3--3--3--|--L--3--3--3--3--3--3S----|
--------------------------|--------------------------|


  Q    E  E  E  E  E  E     E  E  Q    E  E  Q      
-------------------------|-------------------------|
-------------------------|-------------------------|
--7----7--7--L--7--x--3--|--L--3--3----3--3--3S----|
--7----7--7--L--7--x--3--|--L--3--3----3--3--3S----|
--5----5--5--L--5--x--1--|--L--1--1----1--1--1S----|
-------------------------|-------------------------|


  Q    E  E  E  E  E  E     E  E  Q    E  E  E  E   
-------------------------|-------------------------|
-------------------------|-------------------------|
--5----5--5--L--5--x-----|-------------------------|
--5----5--5--L--5--x--3--|--L--3--3----3--3--3--3--|
--3----3--3--L--3--x--3--|--L--3--3----3--3--3--3--|
----------------------3--|--L--3--3----3--3--3--3--|


  Q    E  E  E  E  E  E     E  E  E  E  E  E  Q      
-------------------------|--------------------------|
-------------------------|--------------------------|
----------------------2--|--L--2--x--3--L--3--3S----|
--5----5--5--L--5--x--2--|--L--2--x--3--L--3--3S----|
--5----5--5--L--5--x--0--|--L--0--x--1--L--1--1S----|
--5----5--5--L--5--x-----|--------------------------|


  E  E  E  E  E  E  E  E     E  E  E  E  E  E  Q      
--------------------------|--------------------------|
--------------------------|--------------------------|
--5--5--5--5--L--5--5--5--|--L--5--5--5--5--5--5S----|
--5--5--5--5--L--5--5--5--|--L--5--5--5--5--5--5S----|
--3--3--3--3--L--3--3--3--|--L--3--3--3--3--3--3S----|
--------------------------|--------------------------|


  Q      Q     E   E  E   E    
------------------------------|
------------------10-----10~--|
-------/10----12--------------|
------------------------------|
------------------------------|
------------------------------|


  Q     Q     E   E  E   E      W                 
-----------------------------|-------------------|
--L----------10--11----------|-------------------|
-------10---------------12~--|--L----------------|
-----------------------------|-------------------|
-----------------------------|-------------------|
-----------------------------|-------------------|


  Q    E   E   E    E  E   E   
------------------------------|
------------------------------|
--L----L\-----12br--L--9--10--|
------------------------------|
------------------------------|
------------------------------|


  Q      Q     E   E  E   E    
------------------------------|
------------------10-----10~--|
--L----/10----12--------------|
------------------------------|
------------------------------|
------------------------------|


  Q     Q     E   E   E   E    
------------------------------|
--L----------10--11---x-------|
-------10----------------10~--|
------------------------------|
------------------------------|
------------------------------|


   E   E   E   E  E   E   Q      
--------------------------------|
--10-----------------10---------|
------12--10--12--L------10~----|
--------------------------------|
--------------------------------|
--------------------------------|


  E    E   E   E   E    E  Q      
--------------10--13br--L--L\----|
----------11---------------------|
--L--/10-------------------------|
---------------------------------|
---------------------------------|
---------------------------------|


  Q      Q     E   E  E   E    
------------------------------|
------------------10-----10~--|
-------/10----12--------------|
------------------------------|
------------------------------|
------------------------------|


  Q     Q     E   E  E   E      W                 
-----------------------------|-------------------|
--L----------10--11----------|-------------------|
-------10---------------12~--|--L----------------|
-----------------------------|-------------------|
-----------------------------|-------------------|
-----------------------------|-------------------|


  Q    E   E   E    E  E   E   
------------------------------|
------------------------------|
--L----L\-----12br--L--9--10--|
------------------------------|
------------------------------|
------------------------------|


  Q      Q     E   E  E   E    
------------------------------|
------------------10-----10~--|
--L----/10----12--------------|
------------------------------|
------------------------------|
------------------------------|


  Q     Q     E   E   E   E    
------------------------------|
--L----------10--11---x-------|
-------10----------------10~--|
------------------------------|
------------------------------|
------------------------------|


   E   E   E   E  E   E   Q      
--------------------------------|
--10-----------------10---------|
------12--10--12--L------10~----|
--------------------------------|
--------------------------------|
--------------------------------|


  E    E   E   E   E    E  Q      
--------------10--13br--L--L\----|
----------11---------------------|
--L--/10-------------------------|
---------------------------------|
---------------------------------|
---------------------------------|


             PH       PM PM    PM PM PM PM PM PM PM PM  
  E  E  E    E   Q    E  E     E  E  E  E  E  E  E  E   
----------------------------|--------------------------|
----------------------------|--------------------------|
----------------------------|--------------------------|
----------------------------|--------------------------|
----------------------0--0--|--0--0--0--0--0--0--0--0--|
--6--5--0--<>3b--L----0--0--|--0--0--0--0--0--0--0--0--|


             PH       PM PM    PM PM PM PM PM PM PM PM  
  E  E  E    E   Q    E  E     E  E  E  E  E  E  E  E   
----------------------------|--------------------------|
----------------------------|--------------------------|
----------------------------|--------------------------|
----------------------------|--------------------------|
----------------------0--0--|--0--0--0--0--0--0--0--0--|
--6--5--0--<>3b--L----0--0--|--0--0--0--0--0--0--0--0--|


  Q    E  E  E  E  E  E     E  E  Q    E  E  Q      
-------------------------|-------------------------|
-------------------------|-------------------------|
--3----3--3--3--3--x-----|-------------------------|
--3----3--3--3--3--x--3--|--L--3--3----3--3--3S----|
--1----1--1--1--1--x--3--|--L--3--3----3--3--3S----|
----------------------3--|--L--3--3----3--3--3S----|


   Q     E   E   E   E   E   E   
--------------------------------|
--------------------------------|
--------------------------------|
--10----10--10--10--10---x--12--|
---7-----7---7---7---7---x---8--|
---7-----7---7---7---7---x---8--|


   E   E   Q     E   E   Q      
-------------------------------|
-------------------------------|
-------------------------------|
---L--12--12----12--12--12\----|
---L---8---8-----8---8---8\----|
---L---8---8-----8---8---8\----|


             PH       PM PM    PM PM PM PM PM PM PM PM  
  E  E  E    E   Q    E  E     E  E  E  E  E  E  E  E   
----------------------------|--------------------------|
----------------------------|--------------------------|
----------------------------|--------------------------|
----------------------------|--------------------------|
----------------------0--0--|--0--0--0--0--0--0--0--0--|
--6--5--0--<>3b--L----0--0--|--0--0--0--0--0--0--0--0--|


             PH       PM PM    PM PM PM PM PM PM PM PM  
  E  E  E    E   Q    E  E     E  E  E  E  E  E  E  E   
----------------------------|--------------------------|
----------------------------|--------------------------|
----------------------------|--------------------------|
----------------------------|--------------------------|
----------------------0--0--|--0--0--0--0--0--0--0--0--|
--6--5--0--<>3b--L----0--0--|--0--0--0--0--0--0--0--0--|


  Q    E  E  E  E  E  E     E  E  Q    E  E  Q      
-------------------------|-------------------------|
-------------------------|-------------------------|
--3----3--3--3--3--x-----|-------------------------|
--3----3--3--3--3--x--3--|--L--3--3----3--3--3S----|
--1----1--1--1--1--x--3--|--L--3--3----3--3--3S----|
----------------------3--|--L--3--3----3--3--3S----|


   Q     E   E   E   E   E   E   
--------------------------------|
--------------------------------|
--------------------------------|
--10----10--10--10--10---x--12--|
---7-----7---7---7---7---x---8--|
---7-----7---7---7---7---x---8--|


   E   E   E   E   E  E  Q     
------------------------------|
------------------------------|
------------------------------|
---L--12--12--12--12----------|
---L---8---8---8---8----------|
---L---8---8---8---8----------|


  Q    E  E  E  E  E  E     E  E  Q    E  E  Q      
-------------------------|-------------------------|
-------------------------|-------------------------|
--7----7--7--L--7--x--3--|--L--3--3----3--3--3S----|
--7----7--7--L--7--x--3--|--L--3--3----3--3--3S----|
--5----5--5--L--5--x--1--|--L--1--1----1--1--1S----|
-------------------------|-------------------------|


  Q    E  E  E  E  E  E     E  E  Q    E  E  E  E   
-------------------------|-------------------------|
-------------------------|-------------------------|
--5----5--5--L--5--x-----|-------------------------|
--5----5--5--L--5--x--3--|--L--3--3----3--3--3--3--|
--3----3--3--L--3--x--3--|--L--3--3----3--3--3--3--|
----------------------3--|--L--3--3----3--3--3--3--|


  Q    E  E  E  E  E  E     E  E  E  E  E  E  Q      
-------------------------|--------------------------|
-------------------------|--------------------------|
----------------------2--|--L--2--x--3--L--3--3S----|
--5----5--5--L--5--x--2--|--L--2--x--3--L--3--3S----|
--5----5--5--L--5--x--0--|--L--0--x--1--L--1--1S----|
--5----5--5--L--5--x-----|--------------------------|


  E  E  E  E  E  E  E  E     E  E  E  E  E  E  Q      
--------------------------|--------------------------|
--------------------------|--------------------------|
--5--5--5--5--L--5--5--5--|--L--5--5--5--5--5--5S----|
--5--5--5--5--L--5--5--5--|--L--5--5--5--5--5--5S----|
--3--3--3--3--L--3--3--3--|--L--3--3--3--3--3--3S----|
--------------------------|--------------------------|


  Q    E  E  E  E  E  E     E  E  Q    E  E  Q      
-------------------------|-------------------------|
-------------------------|-------------------------|
--7----7--7--L--7--x--3--|--L--3--3----3--3--3S----|
--7----7--7--L--7--x--3--|--L--3--3----3--3--3S----|
--5----5--5--L--5--x--1--|--L--1--1----1--1--1S----|
-------------------------|-------------------------|


  Q    E  E  E  E  E  E     E  E  Q    E  E  E  E   
-------------------------|-------------------------|
-------------------------|-------------------------|
--5----5--5--L--5--x-----|-------------------------|
--5----5--5--L--5--x--3--|--L--3--3----3--3--3--3--|
--3----3--3--L--3--x--3--|--L--3--3----3--3--3--3--|
----------------------3--|--L--3--3----3--3--3--3--|


  Q    E  E  E  E  E  E     E  E  E  E  E  E  Q      
-------------------------|--------------------------|
-------------------------|--------------------------|
----------------------2--|--L--2--x--3--L--3--3S----|
--5----5--5--L--5--x--2--|--L--2--x--3--L--3--3S----|
--5----5--5--L--5--x--0--|--L--0--x--1--L--1--1S----|
--5----5--5--L--5--x-----|--------------------------|


  E  E  E  E  E  E  E  E     E  E  E  E  E  E  Q      
--------------------------|--------------------------|
--------------------------|--------------------------|
--5--5--5--5--L--5--5--5--|--L--5--5--5--5--5--5S----|
--5--5--5--5--L--5--5--5--|--L--5--5--5--5--5--5S----|
--3--3--3--3--L--3--3--3--|--L--3--3--3--3--3--3S----|
--------------------------|--------------------------|


   E     E   E     E   E     E      Q.      E  Q     
--------------------------------|-------------------|
--------------------------------|-------------------|
--12br---L---Lbr---L---Lbr---L--|---L------10--L----|
--------------------------------|-------------------|
--------------------------------|-------------------|
--------------------------------|-------------------|


   E    E   E    E  E    E     Q     Q     E    E   
----------------------------|----------------------|
--13br--L---Lbr--L--Lbr--L--|--L-------------------|
----------------------------|-------10----12h--14--|
----------------------------|----------------------|
----------------------------|----------------------|
----------------------------|----------------------|


   H         Q         Q     Q     Q     
-------------------|--------------------|
-------------------|--------------------|
--12~--------L\----|--10----12----14----|
-------------------|--------------------|
-------------------|--------------------|
-------------------|--------------------|


    Q.      E  Q        Q     Q     Q     
--------------------|--------------------|
--/15------13--L----|--------------14----|
--------------------|--15----14----------|
--------------------|--------------------|
--------------------|--------------------|
--------------------|--------------------|


   E     E   E     E   E     E      Q.      E  Q     
--------------------------------|-------------------|
--------------------------------|-------------------|
--12br---L---Lbr---L---Lbr---L--|---L------10--L----|
--------------------------------|-------------------|
--------------------------------|-------------------|
--------------------------------|-------------------|


   E    E   E    E  E    E     Q     Q     E    E   
----------------------------|----------------------|
--13br--L---Lbr--L--Lbr--L--|--L-------------------|
----------------------------|-------10----12h--14--|
----------------------------|----------------------|
----------------------------|----------------------|
----------------------------|----------------------|


   H         Q         Q     Q     Q     
-------------------|--------------------|
-------------------|--------------------|
--12~--------L\----|--10----12----14----|
-------------------|--------------------|
-------------------|--------------------|
-------------------|--------------------|


      Q.      E  Q        Q     Q     Q     
----------------------|--------------------|
--13g15------13--L----|--14----15----17----|
----------------------|--------------------|
----------------------|--------------------|
----------------------|--------------------|
----------------------|--------------------|


         PM PM PM PM           PM PM PM PM  
   Q     E  E  E  E      Q     E  E  E  E   
---------------------|---------------------|
---------------------|---------------------|
---------------------|---------------------|
--12\----------------|--12\----------------|
--12\----0--0--0--0--|--12\----0--0--0--0--|
--12\----0--0--0--0--|--12\----0--0--0--0--|


         PM PM PM PM           PM PM PM PM  
   Q     E  E  E  E      Q     E  E  E  E   
---------------------|---------------------|
---------------------|---------------------|
---------------------|---------------------|
--12\----------------|--12\----------------|
--12\----0--0--0--0--|--12\----0--0--0--0--|
--12\----0--0--0--0--|--12\----0--0--0--0--|


       PM PM PM PM         PM PM PM PM  
  Q    E  E  E  E     Q    E  E  E  E   
-------------------|-------------------|
-------------------|-------------------|
-------------------|-------------------|
-------------------|-------------------|
-------0--0--0--0--|-------0--0--0--0--|
-------0--0--0--0--|-------0--0--0--0--|


       PM PM PM PM                    
  Q    E  E  E  E     Q    Q    Q     
-------------------|-----------------|
-------------------|-----------------|
-------------------|-----------------|
-------------------|--0----2----3----|
-------0--0--0--0--|--0----2----3----|
-------0--0--0--0--|--0----2----3----|


  Q    E  E  E  E     Q    E  E  E  E   
-------------------|-------------------|
-------------------|-------------------|
-------------------|-------------------|
--8----8--8--8--8--|--8----8--8--8--8--|
--8----8--8--8--8--|--8----8--8--8--8--|
--8----8--8--8--8--|--8----8--8--8--8--|


   Q     E   E   E   E      Q     E   E   Q     
------------------------|----------------------|
------------------------|----------------------|
------------------------|----------------------|
--10----10--10--10--10--|--10----10--10--10----|
---8-----8---8---8---8--|---8-----8---8---8----|
---8-----8---8---8---8--|---8-----8---8---8----|


         PM PM PM PM           PM PM PM PM  
   Q     E  E  E  E      Q     E  E  E  E   
---------------------|---------------------|
---------------------|---------------------|
---------------------|---------------------|
--12\----------------|--12\----------------|
--12\----0--0--0--0--|--12\----0--0--0--0--|
--12\----0--0--0--0--|--12\----0--0--0--0--|


         PM PM PM PM           PM PM PM PM  
   Q     E  E  E  E      Q     E  E  E  E   
---------------------|---------------------|
---------------------|---------------------|
---------------------|---------------------|
--12\----------------|--12\----------------|
--12\----0--0--0--0--|--12\----0--0--0--0--|
--12\----0--0--0--0--|--12\----0--0--0--0--|


       PM PM PM PM         PM PM PM PM  
  Q    E  E  E  E     Q    E  E  E  E   
-------------------|-------------------|
-------------------|-------------------|
-------------------|-------------------|
-------------------|-------------------|
-------0--0--0--0--|-------0--0--0--0--|
-------0--0--0--0--|-------0--0--0--0--|


       PM PM PM PM                    
  Q    E  E  E  E     Q    Q    Q     
-------------------|-----------------|
-------------------|-----------------|
-------------------|-----------------|
-------------------|--0----2----3----|
-------0--0--0--0--|--0----2----3----|
-------0--0--0--0--|--0----2----3----|


  Q    E  E  E  E     Q    E  E  E  E   
-------------------|-------------------|
-------------------|-------------------|
-------------------|-------------------|
--8----8--8--8--8--|--8----8--8--8--8--|
--8----8--8--8--8--|--8----8--8--8--8--|
--8----8--8--8--8--|--8----8--8--8--8--|


   Q     E   E   E   E      Q     E   E   Q     
------------------------|----------------------|
------------------------|----------------------|
------------------------|----------------------|
--10----10--10--10--10--|--10----10--10--10----|
---8-----8---8---8---8--|---8-----8---8---8----|
---8-----8---8---8---8--|---8-----8---8---8----|


  Q    E  E  E  E     Q    E  E  E  E   
-------------------|-------------------|
-------------------|-------------------|
-------------------|-------------------|
--3----3--3--3--3--|--3----3--3--3--3--|
--0----0--0--0--0--|--0----0--0--0--0--|
--0----0--0--0--0--|--0----0--0--0--0--|


  Q    E  E  E  E     Q    E  E  E  E   
-------------------|-------------------|
-------------------|-------------------|
-------------------|-------------------|
--5----5--5--5--5--|--5----5--5--5--5--|
--3----3--3--3--3--|--3----3--3--3--3--|
--2----2--2--2--2--|--2----2--2--2--2--|


  Q    E  E  E  E     Q    E  E  E  E   
-------------------|-------------------|
-------------------|-------------------|
-------------------|-------------------|
--3----3--3--3--3--|--3----3--3--3--3--|
--3----3--3--3--3--|--3----3--3--3--3--|
--3----3--3--3--3--|--3----3--3--3--3--|


  Q    E  E  E  E     Q    Q    Q     
-------------------|-----------------|
-------------------|-----------------|
-------------------|--2----2----2----|
--3----3--3--3--3--|--2----2----2----|
--3----3--3--3--3--|--0----0----4----|
--3----3--3--3--3--|-----------------|


   E   E   E   E   E   E   E   E   
------------------10------12------|
--------------10------10------10--|
----------10----------------------|
--11--12--------------------------|
----------------------------------|
----------------------------------|


                 |--3--|                 
   E   E   S  S  S  S  S  Q      E.   S  
--13---------------13-15-16b-----L---13-|
----------------15----------------------|
------13-----13-------------------------|
----------15----------------------------|
----------------------------------------|
----------------------------------------|


    E    E   E   E   E    Q     E   
--/20s--18-------------------------|
------------18---------------------|
----------------19---Ls--15----14--|
-----------------------------------|
-----------------------------------|
-----------------------------------|


                          |---3---|         
   E   S   S  S  S  S  S  E   E   E   Q     
-------------------------13----------------|
-------------13-11-----------13------------|
---L\--------------10------------10--------|
-------8s-10----------12-------------12----|
-------------------------------------------|
-------------------------------------------|


   S S  S S  S  S  S  S  S  S  S  S  S  S  S  S  
------------------------20----------18----------|
----------9-12-14-13-14----20-17-------20-17----|
-----9-10------------------------19----------19-|
--10--------------------------------------------|
------------------------------------------------|
------------------------------------------------|


   S  S  S  S  S  S  S  S  Q.       E    
--17----20----12------------------------|
-----20----20----15-13------------------|
-----------------------15-12~-------L\--|
----------------------------------------|
----------------------------------------|
----------------------------------------|


   |---3--|                                
   E  E   E   S  S S  S  E    E    E   E   
-------------------9-10-12s--17b---L---L--|
----------------10------------------------|
------9--10--12---------------------------|
--11--------------------------------------|
------------------------------------------|
------------------------------------------|


   |--3--|   |---3---|   |---3---|   |----3---|    
   Q     E   E   E   E   E   E   E   E    E   E    
---L----------------------------------------------|
--------14--14--15--15--17--17--17--20b---L---Lb--|
--------------------------------------------------|
--------------------------------------------------|
--------------------------------------------------|
--------------------------------------------------|


                                             |--3--|  
   S  S  S  S  S  S  S  S  S  S  S  S  S  S  S  S  S  
-----------------------------------------------------|
---L-18-17----------17-------------------------------|
-----------17-17-------17-17-------------------------|
-----------------19----------19-17----------------19-|
-----------------------------------20-17-20-17-20----|
-----------------------------------------------------|


   |--6--|  |--6--|  |--6--|  |--6--|  |--6--|  |--6--| 
   S  S  S  S  S  S  S  S  S  S  S  S  S  S  S  S  S  S 
-----------------------------------------17-------------
--------------------18----------------18----18-18-17-18-
--17-------------17----19-17-17-17-19-------------------
-----20-19-17-20----------------------------------------
--------------------------------------------------------
--------------------------------------------------------


                     |--6--|  |---6--|  |--6--|  |---6--
   E    E    E   E   S  S  S  S   S  S  S  S  S  S   S  
-----------------------15-18-18p-15-15----15-18-18p-15-1
--15~---Ls--19\-----18-----------------18---------------
--------------------------------------------------------
--------------------------------------------------------
--------------------------------------------------------
--------------------------------------------------------


   |--3--|        |--3--|        |--6--|  |--6--|  |---3
   S  S  S  S  S  S  S  S  S  S  S  S  S  S  S  S  S   S
--22-------------22-------------------------------------
-----18-18----------18-18-------------------------------
-----------19-19----------19----------------------15h-17
-----------------------------------15-17-15-17-17-------
-----------------------------17-17----------------------
--------------------------------------------------------


   E    Q    E    S  S  S  S  S  S  S  S   
--------------------------------12----12s-|
--15b---L--------------------13----13-----|
--------------------------12--------------|
--------------------12-14-----------------|
----------------/15-----------------------|
------------------------------------------|


                                                |---3--|
   S  S  S  S  S S  T   T  T   T  T   T  T   T  S   S  S
--15----15----20---18p-17-22p-18-18p-17-19p-18--------16
-----17----17----------------------------------18p-16---
--------------------------------------------------------
--------------------------------------------------------
--------------------------------------------------------
--------------------------------------------------------


    E   E   E   E   E   E   E     E   
---------------18---L--17---L\-------|
-------17--20------------------------|
--/18---------------------------/18--|
-------------------------------------|
-------------------------------------|
-------------------------------------|


   E   E   E    S  S  E   S  S  S  S  S  S  
-------------------------------------------|
------17---L\------------------------14-15-|
---L------------------------14-15-17-------|
---------------14-14-15--17----------------|
-------------------------------------------|
-------------------------------------------|


   E   E   E   E   E   E   E   E   
--13--12--10------13--12--10------|
--------------10--------------10--|
----------------------------------|
----------------------------------|
----------------------------------|
----------------------------------|


   E   E   E   E   E   E   E   E   
--13--12--10------13--12--10--13--|
--------------10------------------|
----------------------------------|
----------------------------------|
----------------------------------|
----------------------------------|


   E   E   E   E   E   E   E   E   
---L--12--10------13--12--10------|
--------------11--------------11--|
----------------------------------|
----------------------------------|
----------------------------------|
----------------------------------|


   E   E   E   E   E   E   E   E   
--13--12--10------13--12--10--15--|
--------------11------------------|
----------------------------------|
----------------------------------|
----------------------------------|
----------------------------------|


   E   E   E   E   E   E   E   E   
---L--13--12------15--13--12------|
--------------13--------------13--|
----------------------------------|
----------------------------------|
----------------------------------|
----------------------------------|


   E   E   E   E   E   E   E    E   
--15--13--12------15--13--12s--17--|
--------------13-------------------|
-----------------------------------|
-----------------------------------|
-----------------------------------|
-----------------------------------|


   E   E   E   E   E   Q     E   
---L--18--15--17---L--18----17--|
--------------------------------|
--------------------------------|
--------------------------------|
--------------------------------|
--------------------------------|


   E    Q     E   E   E    Q      
---Ls--12----13---L--15~---L\----|
---------------------------------|
---------------------------------|
---------------------------------|
---------------------------------|
---------------------------------|


   E   E   E   E   E   E   E   E   
--13--12--10------13--12--10------|
--------------10--------------10--|
----------------------------------|
----------------------------------|
----------------------------------|
----------------------------------|


   E   E   E   E   E   E   E   E   
--13--12--10------13--12--10--13--|
--------------10------------------|
----------------------------------|
----------------------------------|
----------------------------------|
----------------------------------|


   E   E   E   E   E   E   E   E   
---L--12--10------13--12--10------|
--------------11--------------11--|
----------------------------------|
----------------------------------|
----------------------------------|
----------------------------------|


   E   E   E   E   E   E   E   E   
--13--12--10------13--12--10--15--|
--------------11------------------|
----------------------------------|
----------------------------------|
----------------------------------|
----------------------------------|


   E   E   E   E   E   E   E   E   
---L--13--12------15--13--12------|
--------------13--------------13--|
----------------------------------|
----------------------------------|
----------------------------------|
----------------------------------|


   E   E   E   E   E   E   E    E   
--15--13--12------15--13--12s--17--|
--------------13-------------------|
-----------------------------------|
-----------------------------------|
-----------------------------------|
-----------------------------------|


   E   E   E   E   E   Q     E   
---L--18--15--17---L--18----17--|
--------------------------------|
--------------------------------|
--------------------------------|
--------------------------------|
--------------------------------|


   E    Q     E   E   E    Q      
---Ls--12----13---L--15~---L\----|
---------------------------------|
---------------------------------|
---------------------------------|
---------------------------------|
---------------------------------|


   E   E   E   E   E   E   E   E    
--12--10---------------------------|
----------10--------------10--13~--|
--------------10------10-----------|
------------------12---------------|
-----------------------------------|
-----------------------------------|


   H.            E   E   
------------------------|
---L------------11--11--|
------------------------|
------------------------|
------------------------|
------------------------|


   E   E   E   E   E   E  E     E   
-----------------------------------|
---L--10--10--11---L--13-----13g6--|
-----------------------------------|
-----------------------------------|
-----------------------------------|
-----------------------------------|


  H        Q.     S  S    E  Q    E  E  E  E  S  S  
-----------------------|---------------------------|
--L--------L------6s-8-|--L--6----5--L--6--8-------|
-----------------------|----------------------5s-7-|
-----------------------|---------------------------|
-----------------------|---------------------------|
-----------------------|---------------------------|


  E  Q    E   Q.     S S    E  E  E  E  E  E  E  S  S  
-------------------------|--------5--6--L--5--5-------|
-------------------------|-----5-----------------6s-8-|
--L--5----5~--L------5-5-|--6-------------------------|
-------------------------|----------------------------|
-------------------------|----------------------------|
-------------------------|----------------------------|


  E  Q    S   S  Q     E   E    
-------------------------------|
--L--6----8s-10--L----11--10~--|
-------------------------------|
-------------------------------|
-------------------------------|
-------------------------------|


   Q      E    E   E   E   E   E   
--------------------------10--12--|
---L~-----L\----------10----------|
------------------10--------------|
--------------12------------------|
----------------------------------|
----------------------------------|


   E   Q     E   E   E  E   E    
---L--13----12---L--------------|
--------------------13-----13b--|
--------------------------------|
--------------------------------|
--------------------------------|
--------------------------------|


   E   Q.       E   E   E     E     H.           Q      
---------------------------------|---------------------|
---L---L~-------L--13b-----13g6--|--L------------L\----|
---------------------------------|---------------------|
---------------------------------|---------------------|
---------------------------------|---------------------|
---------------------------------|---------------------|


                           |---3--|   
   E   E   E   E   E   E   E  E   E   
-------------------------------------|
-------------------------------------|
--\9--10--12------------------9--12--|
--------------10---L------10---------|
----------------------12-------------|
-------------------------------------|


   |----3----|  |---3--|   |---3--|                 
   E  E   S  S  E  E   E   S   S  S  E   S   S  E   
------------------------------------12--13s-15-12--|
---------------------------------13----------------|
--10--9--10p-9-10--9------10s-12-------------------|
----------------------12---------------------------|
---------------------------------------------------|
---------------------------------------------------|


                         |--3-|               
   S  S  S  S   E   S  S S  S S  E   E    E   
------------------------------9-12--13s--17--|
--13-----------------------10----------------|
-----12------------------9-------------------|
--------14------------11---------------------|
-----------15s-12--12------------------------|
---------------------------------------------|


   S  S  S  S  S  S  S  S  S  S  Q     S   S   
-----------------------------17-18----17p-16p-|
-----14---------------------------------------|
--14----14-------------14-16------------------|
-----------14-------14------------------------|
--------------16-16---------------------------|
----------------------------------------------|


  Q    Q    H           H        H         
---------------------|--------------------|
---------------------|--------------------|
--7----7----7--------|--7--------7--------|
--7----7----7--------|--7--------7--------|
--5----5----5--------|--5--------5--------|
---------------------|--------------------|


  Q    Q    Q    Q       H        Q    Q      
----------------------|----------------------|
----------------------|----------------------|
--3----3----3----3----|--3--------3----LS----|
--3----3----3----3----|--3--------3----LS----|
--1----1----1----1----|--1--------1----LS----|
----------------------|----------------------|


  Q    Q    Q    Q       Q    Q    Q    E  E   
----------------------|-----------------------|
----------------------|-----------------------|
--5----5----5----5----|--5----5----5----5--x--|
--5----5----5----5----|--5----5----5----5--x--|
--3----3----3----3----|--3----3----3----3--x--|
----------------------|-----------------------|


  Q    Q    H           Q    Q    Q    E  E   
---------------------|-----------------------|
---------------------|-----------------------|
---------------------|-----------------------|
--3----3----3--------|--3----3----3----3--3--|
--3----3----3--------|--3----3----3----3--3--|
--3----3----3--------|--3----3----3----3--3--|


  Q    Q    H           H        Q    Q      
---------------------|----------------------|
---------------------|----------------------|
---------------------|----------------------|
--5----5----5--------|--5--------5----L\----|
--5----5----5--------|--5--------5----L\----|
--5----5----5--------|--5--------5----L\----|


  Q    Q    H           H        Q    Q      
---------------------|----------------------|
---------------------|----------------------|
--2----2----2--------|--3--------3----LS----|
--2----2----2--------|--3--------3----LS----|
--0----0----0--------|--1--------1----LS----|
---------------------|----------------------|


  Q    Q    Q    Q       Q    Q    Q    Q     
----------------------|----------------------|
----------------------|----------------------|
--5----5----5----5----|--5----5----5----5----|
--5----5----5----5----|--5----5----5----5----|
--3----3----3----3----|--3----3----3----3----|
----------------------|----------------------|


  Q    Q    Q    Q       Q    Q    Q    E  E   
----------------------|-----------------------|
----------------------|-----------------------|
--5----5----5----5----|--2----2----2----2--2--|
--5----5----5----5----|--2----2----2----2--2--|
--3----3----3----3----|--4----4----4----4--4--|
----------------------|-----------------------|


  Q    Q    H           H        H         
---------------------|--------------------|
---------------------|--------------------|
--7----7----7--------|--7--------7--------|
--7----7----7--------|--7--------7--------|
--5----5----5--------|--5--------5--------|
---------------------|--------------------|


  Q    Q    Q    Q       H        Q    Q      
----------------------|----------------------|
----------------------|----------------------|
--3----3----3----3----|--3--------3----LS----|
--3----3----3----3----|--3--------3----LS----|
--1----1----1----1----|--1--------1----LS----|
----------------------|----------------------|


  Q    Q    Q    Q       Q    Q    Q    E  E   
----------------------|-----------------------|
----------------------|-----------------------|
--5----5----5----5----|--5----5----5----5--x--|
--5----5----5----5----|--5----5----5----5--x--|
--3----3----3----3----|--3----3----3----3--x--|
----------------------|-----------------------|


  Q    Q    H           Q    Q    Q    E  E   
---------------------|-----------------------|
---------------------|-----------------------|
---------------------|-----------------------|
--3----3----3--------|--3----3----3----3--3--|
--3----3----3--------|--3----3----3----3--3--|
--3----3----3--------|--3----3----3----3--3--|


  Q    Q    H           H        Q    Q      
---------------------|----------------------|
---------------------|----------------------|
---------------------|----------------------|
--5----5----5--------|--5--------5----L\----|
--5----5----5--------|--5--------5----L\----|
--5----5----5--------|--5--------5----L\----|


  Q    Q    H           H        Q    Q      
---------------------|----------------------|
---------------------|----------------------|
--2----2----2--------|--3--------3----LS----|
--2----2----2--------|--3--------3----LS----|
--0----0----0--------|--1--------1----LS----|
---------------------|----------------------|


  Q    Q    Q    Q       Q    Q    Q    Q     
----------------------|----------------------|
----------------------|----------------------|
--5----5----5----5----|--5----5----5----5----|
--5----5----5----5----|--5----5----5----5----|
--3----3----3----3----|--3----3----3----3----|
----------------------|----------------------|


  Q    Q    Q    Q       Q    Q    Q    E  E   
----------------------|-----------------------|
----------------------|-----------------------|
--5----5----5----5----|--2----2----2----2--2--|
--5----5----5----5----|--2----2----2----2--2--|
--3----3----3----3----|--4----4----4----4--4--|
----------------------|-----------------------|


   E     E   E     E   E     E      Q.      E  Q     
--------------------------------|-------------------|
--------------------------------|-------------------|
--12br---L---Lbr---L---Lbr---L--|---L------10--L----|
--------------------------------|-------------------|
--------------------------------|-------------------|
--------------------------------|-------------------|


   E    E   E    E  E    E     Q     Q     E    E   
----------------------------|----------------------|
--13br--L---Lbr--L--Lbr--L--|--L-------------------|
----------------------------|-------10----12h--14--|
----------------------------|----------------------|
----------------------------|----------------------|
----------------------------|----------------------|


   H         Q         Q     Q     Q     
-------------------|--------------------|
-------------------|--------------------|
--12~--------L\----|--10----12----14----|
-------------------|--------------------|
-------------------|--------------------|
-------------------|--------------------|


    Q.      E  Q        Q     Q     Q     
--------------------|--------------------|
--/15------13--L----|--------------14----|
--------------------|--15----14----------|
--------------------|--------------------|
--------------------|--------------------|
--------------------|--------------------|


   E     E   E     E   E     E      Q.      E  Q     
--------------------------------|-------------------|
--------------------------------|-------------------|
--12br---L---Lbr---L---Lbr---L--|---L------10--L----|
--------------------------------|-------------------|
--------------------------------|-------------------|
--------------------------------|-------------------|


   E    E   E    E  E    E     Q     Q     E    E   
----------------------------|----------------------|
--13br--L---Lbr--L--Lbr--L--|--L-------------------|
----------------------------|-------10----12h--14--|
----------------------------|----------------------|
----------------------------|----------------------|
----------------------------|----------------------|


   H         Q         Q     Q     Q     
-------------------|--------------------|
-------------------|--------------------|
--12~--------L\----|--10----12----14----|
-------------------|--------------------|
-------------------|--------------------|
-------------------|--------------------|


      Q.      E  Q        Q     Q     Q     
----------------------|--------------------|
--13g15------13--L----|--14----15----17----|
----------------------|--------------------|
----------------------|--------------------|
----------------------|--------------------|
----------------------|--------------------|


   H.                 H.               H.            
------------------|----------------|----------------|
--17b~------------|---L------------|---L------------|
------------------|----------------|----------------|
------------------|----------------|----------------|
------------------|----------------|----------------|
------------------|----------------|----------------|


   H.              H.              H.            
----------------|---------------|---------------|
---L------------|---------------|---------------|
----------------|---------------|---------------|
----------------|---------------|---------------|
----------------|---------------|---------------|
----------------|---------------|---------------|


  Q     Q     Q        Q     Q     Q     
-------------------|--10----------------|
-------10----------|--------10----------|
-------------10----|--------------10----|
-------------------|--------------------|
--8----------------|--------------------|
-------------------|--------------------|


  Q    Q    Q       Q    Q    Q       Q    Q    Q     
-----------------|-------5---------|-----------------|
-------6---------|--8---------6----|-------8---------|
------------7----|-----------------|------------9----|
-----------------|-----------------|-----------------|
--5--------------|-----------------|--7--------------|
-----------------|-----------------|-----------------|


   Q    Q    Q       Q     Q    Q     
------------------|------------------|
--10----8---------|------------------|
-------------9----|--7---------------|
------------------|-------10----7----|
------------------|------------------|
------------------|------------------|


   Q     Q     Q       Q     Q     Q     
--------------------|-------------------|
--------------------|-------10----------|
--/9----------------|-------------10----|
--------11----------|-------------------|
--------------10----|--8----------------|
--------------------|-------------------|


   Q     Q     Q       Q    Q    Q     
--10----------------|-----------------|
--------10----------|-------6---------|
--------------10----|------------7----|
--------------------|-----------------|
--------------------|--5--------------|
--------------------|-----------------|


  Q    Q    Q       Q    Q    Q        Q    Q    Q     
-------5---------|-----------------|------------------|
--8---------6----|-------8---------|--10----8---------|
-----------------|------------9----|-------------9----|
-----------------|-----------------|------------------|
-----------------|--7--------------|------------------|
-----------------|-----------------|------------------|


  Q     Q    Q        Q     Q     Q     
------------------|--------------------|
------------------|--------------------|
--7---------------|--/9----------------|
-------10----7----|--------11----------|
------------------|--------------10----|
------------------|--------------------|


  Q     Q     Q        Q     Q     Q     
-------------------|--10----------------|
-------10----------|--------10----------|
-------------10----|--------------10----|
-------------------|--------------------|
--8----------------|--------------------|
-------------------|--------------------|


  Q    Q    Q       Q    Q    Q       Q    Q    Q     
-----------------|-------5---------|-----------------|
-------6---------|--8---------6----|-------8---------|
------------7----|-----------------|------------9----|
-----------------|-----------------|-----------------|
--5--------------|-----------------|--7--------------|
-----------------|-----------------|-----------------|


   Q    Q    Q       Q     Q    Q     
------------------|------------------|
--10----8---------|------------------|
-------------9----|--7---------------|
------------------|-------10----7----|
------------------|------------------|
------------------|------------------|


   Q     Q     Q       Q     Q     Q     
--------------------|-------------------|
--------------------|-------10----------|
--/9----------------|-------------10----|
--------11----------|-------------------|
--------------10----|--8----------------|
--------------------|-------------------|


   Q     Q     Q       Q    Q    Q     
--10----------------|-----------------|
--------10----------|-------6---------|
--------------10----|------------7----|
--------------------|-----------------|
--------------------|--5--------------|
--------------------|-----------------|


  Q    Q    Q       Q    Q    Q        Q    Q    Q     
-------5---------|-----------------|------------------|
--8---------6----|-------8---------|--10----8---------|
-----------------|------------9----|-------------9----|
-----------------|-----------------|------------------|
-----------------|--7--------------|------------------|
-----------------|-----------------|------------------|


  Q     Q    Q        Q     Q     Q     
------------------|--------------------|
------------------|--------------------|
--7---------------|--/9----------------|
-------10----7----|--------11----------|
------------------|--------------10----|
------------------|--------------------|


   Q     Q     Q        Q     Q     Q     
--------------------|--10----------------|
--------------11----|--------11----------|
--------10----------|--------------10----|
--12----------------|--------------------|
--------------------|--------------------|
--------------------|--------------------|


   Q     Q     Q        Q     Q     Q     
--------------------|--10----------------|
--------------11----|--------11----------|
--------10----------|--------------10----|
--12----------------|--------------------|
--------------------|--------------------|
--------------------|--------------------|


  Q     Q     Q        Q     Q     Q     
-------------------|--10----------------|
-------------10----|--------10----------|
-------10----------|--------------10----|
-------------------|--------------------|
--8----------------|--------------------|
-------------------|--------------------|


  Q     Q     Q        Q     Q     Q     
-------------------|--10----------------|
-------------10----|--------10----------|
-------10----------|--------------10----|
-------------------|--------------------|
--8----------------|--------------------|
-------------------|--------------------|


  Q     Q     Q       Q     Q     Q     
-------------------|-------------------|
-------------------|--9----------------|
-------------10----|-------10----------|
-------11----------|-------------11----|
--8----------------|-------------------|
-------------------|-------------------|


   Q     Q     Q       Q     Q     Q     
--------------------|--8----------------|
--11----------------|-------------------|
--------10----------|-------10----------|
--------------11----|-------------11----|
--------------------|-------------------|
--------------------|-------------------|


  Q     Q    Q       Q    Q     Q     
------------------|------------------|
------------------|--8---------------|
-------------9----|-------9----------|
-------10---------|------------10----|
--7---------------|------------------|
------------------|------------------|


  Q    E  E  E  E     E  E  E  E    E   E   
----------6--5-----|-----------------------|
----------------8--|--6--5--6--8s--10s--8--|
-------------------|-----------------------|
-------------------|-----------------------|
-------------------|-----------------------|
-------------------|-----------------------|


  Q.      E   Q         H.               H.            
-------------------|------------------|---------------|
--6~---------------|------------------|--6------------|
----------7~--L----|--5g7~------------|---------------|
-------------------|------------------|---------------|
-------------------|------------------|---------------|
-------------------|------------------|---------------|


  E  E  E  E  E  E     E  E  E  E   Q     
--------------------|--------------------|
--L-----6-----8-----|--5--6--5-----------|
-----7-----7--------|-----------5s--7----|
--------------------|--------------------|
--------------------|--------------------|
--------------------|--------------------|


  H         E  E     E  S S E  E  E  E   
------------------|---------------------|
------------------|---------------------|
--5~--------L-----|--3--2---2-----------|
------------------|-------5----2--3--5--|
------------------|---------------------|
------------------|---------------------|


  E   E   E  E  E  E     Q.      E  Q     
----------------------|------------------|
----------------------|----------3--L----|
--2h--3p--2-----2--3--|--2~--------------|
-------------5--------|------------------|
----------------------|------------------|
----------------------|------------------|


  Q.     E  Q       Q.      E  Q       Q.     E  Q     
-----------------|------------------|-----------------|
--5------6--L----|----------3--L----|--5------6--L----|
-----------------|--3~--------------|-----------------|
-----------------|------------------|-----------------|
-----------------|------------------|-----------------|
-----------------|------------------|-----------------|


  E   E  H            Q    Q    Q     
-------------------|-----------------|
--6s--8--5~--------|--5----6----8----|
-------------------|-----------------|
-------------------|-----------------|
-------------------|-----------------|
-------------------|-----------------|


    Q.      E  S  S  S S    E  E     Q    E  E   
--5g6~------5--Lh-6p-5---|----------------------|
-----------------------8-|--6--8--8g10----8--6--|
-------------------------|----------------------|
-------------------------|----------------------|
-------------------------|----------------------|
-------------------------|----------------------|


  Q.     E  Q       S  E.   Q    E  S S  
-----------------|------------------5---|
--8------6--L----|--------------------5-|
-----------------|--5s-7~---L----L------|
-----------------|----------------------|
-----------------|----------------------|
-----------------|----------------------|


  S S E   H           Q    S S E  Q     
-------------------|-------------------|
-------------------|-------------------|
--7-5-7b--L--------|--L----L-5---------|
-------------------|-------------------|
-------------------|-------------------|
-------------------|-------------------|


                   |--3--|        
  E   S S S  S S S S  S  S  E     
----------8-10---8---------------|
--------9----------9-------------|
-----10--------------10p-7-10b~--|
---------------------------------|
---------------------------------|
---------------------------------|


  Q     E   E  S  S  S  S  
--------------------------|
--------------------------|
--L-----L---L----13-12-10-|
--------------------------|
--------------------------|
--------------------------|


                        |--3--|               
   S   S  S  S  S   S   S  S  S  S   S  S  S  
--------------------------------10s-12-10-12-|
--------------------------10-13--------------|
--13p-12-10-12-13p-12p-10--------------------|
---------------------------------------------|
---------------------------------------------|
---------------------------------------------|


   |-----5-----|      |--3--|                           
   S  S  S  S  S  E   S  S  S  Q          H.            
--13-12-10----10-12--10---------------|----------------|
-----------13-----------13-10-13b~----|---L------------|
--------------------------------------|----------------|
--------------------------------------|----------------|
--------------------------------------|----------------|
--------------------------------------|----------------|


         |----3---|   |-----3-----|   
   Q     E    E   E   E   E   S   S   
-------------------------------------|
---L----13b--13--10------------------|
---------------------12--10--12s-14s-|
-------------------------------------|
-------------------------------------|
-------------------------------------|


   S  S  S  S  S   S S  S   Q        H         E   E   
---------------------------------|--------------------|
---------------------------------|--------------------|
--12-10----10-12b--L---10~--L----|---L---------L\-----|
--------12-----------------------|--------------------|
---------------------------------|--------------------|
---------------------------------|--------------------|


  H.              H.              H.            
---------------|---------------|---------------|
---------------|---------------|---------------|
---------------|---------------|---------------|
---------------|---------------|---------------|
---------------|---------------|---------------|
---------------|---------------|---------------|


  H.             
---------------||
---------------||
---------------||
---------------||
---------------||
---------------||



            
            
Suggest correction
Creating personal tab
Creating personal tab
You can edit any tab online and save it as your Personal.

You can edit, replace or remove any tab part or add personal notes – all changes will be seen only by you.

Personal tabs can be accessed anytime from any device, even offline.
Learn more »
Give kudos to tab author, rate the tab!
1 2 3 4 5
comments
print report bad tab
1 comment total.
+1 reply
Audible Warfare 806 Aug 01, 2013 03:48 PM

Over 95% of this was taken from another tab. If I could give negative stars I definitely would.

guest
You may want to rate the tab now too:
select rating
Wanna post a correction for this tab? Suggest correction