Oops, an error
Loading. Please wait.

Missing In Action bass

version 3
version 3

Whole song

1,498 views 1 this week
3 commentsread comments
1 2 3 4 5
x 6
add to favorites
×
Save as Personal and add changes to this tab that will be seen only by you. Learn more ›
×
You can save this tab as Personal to edit and correct it or add notes. All changes will be seen only by you. Learn more »
launch autoscroll
font size
0
reset
guitar tuner
edit
Autoscroll
slow
fast
+/-
esc
set tempo
stop
Author
Difficulty
INTRO (1:05)
G ||------------------------------------------------------------------------|
D ||0-0--2-3-------------------------------------------0-0--2-3-------------|
A ||---------1-1-1--3-5-3-333-3-3-333-3-3-333-3--3-3-4----------1-1-1--3-5--|
D ||------------------------------------------------------------------------|

G -------------------------||
D -------------------------||
A 3~3------1~1-1-1-1-1-1-1-||  x2
D ----3~3------------------||

"The fighting rages on and on....."
G ||-------------------------------------------|
D ||---------------------------8~~5-0---0-3-55-|
A ||----------------------------------1--------|
D ||00------------00---------------------------|

"To challenge me you must be strong..."
G --------------------5~------||
D --------------3~2-3---3-2-3-||
A 33--------------------------||  x2
D ----------------------------||

VERSE 1
"It's no fun but I've been here before..."
G ||---------------------------------------------------------|
D ||---------------------------------------------------------|
A ||---------------------------------------------------------|
D ||6-5-0-3~0-0-0-0-0-0-0-0-0-0-6-5-0-3~-0-0-0-0-0-0-0-0-0-0-|

"Not the way I pictured this..."
G -------------------------------------||
D -------------------------------------||
A 1-11-1--------0-00-0-1-1-1-1-1-1-1-1-||  x2
D -------3-33-3------------------------||


CHORUS 1
"Fight for honor, fight for your lives..."
G -----------------------------------------------------------------------|
D -----------------------------------------------------------------------|
A 5-55-5--1-11-1-11-3-33-3-------------------0-00-1-11-3-33-3-3-33-3-33--| x2
D -------------------------3-33-3-33--5-55-5-----------------------------|


INTRO 2
G ||------------------------------------------------------------------------|
D ||0-0--2-3-------------------------------------------0-0--2-3-------------|
A ||---------1-1-1--3-5-3-333-3-3-333-3-3-333-3--3-3-4----------1-1-1--3-5--|
D ||------------------------------------------------------------------------|

G -------------------------||
D -------------------------||
A 3~3------1~1-1-1-1-1-1-1-||  x2
D ----3~3------------------||

VERSE 2
"So many soldiers on the other side..."
G ||---------------------------------------------------------|
D ||---------------------------------------------------------|
A ||---------------------------------------------------------|
D ||6-5-0-3~0-0-0-0-0-0-0-0-0-0-6-5-0-3~-0-0-0-0-0-0-0-0-0-0-|

"Scared to make it out alive now...."
G -------------------------------------||
D -------------------------------------||
A 1-11-1--------0-00-0-1-1-1-1-1-1-1-1-||  x2
D -------3-33-3------------------------||

CHORUS 2
"Fight for honor, fight for your lives..."
G -----------------------------------------------------------------------|
D -----------------------------------------------------------------------|
A 5-55-5--1-11-1-11-3-33-3-------------------0-00-1-11-3-33-3-3-33-3-33--| x2
D -------------------------3-33-3-33--5-55-5-----------------------------|

BRIDGE
"Starin at the carnage, prayin that the sun would never rise..."
G -----------------------------------------|
D -----------------------------------------|
A ----------1--1-1-0-1-3--3-3--3------0--0-|  x2
D 0--0-0--0----------------------3--3------|

"Watchin the death toll rise wonderin how I'm alive...."
G ||--------------------------------------------------------|
D ||--------------------------------------------------------|
A ||--------------------------------------------------------|
D ||12/0--0-0-0-0-12/0--0-0-0-0-12/0--0-0-0-0-12/0--0-0-0-0-|

G -----------------------------------------------------------||
D -----------------------------------------------------------||
A -----------------------------------1-1-1-1-1-1-1-1-1-1-1-1-|| x2
D 0-0-0-0---0-0-0-0---0-0-0-0--0-2-3-------------------------||

"Noooooo thought of meeeee...."
G ----------------------------------------|
D ----------------------------------------|
A ----------------------------------------|
D 0--0-0--0-2--2-2--2-3--3-3--3-3-3-3-3-3-|

SOLO
G ||---------------------------------------------------------------|
D ||---------------------------------------------------------------|
A ||5-555-5-5-555-5-5-555-5-5-5-5-5~-1-111-1-1-111-1-1-111-1-1-1-1-|
D ||---------------------------------------------------------------|

G ----------------------------------------------||
D ----------------------------------------------||
A 3-333-3-3-333-3-3-333-3-3-3-3--000-444-777-444|| x2
D ----------------------------------------------||


Here you have 2 options: play the solo part again during the guitar duet, or play along 
the guitars:
G ||----------------------------------------------------------------|
D ||----------------------------------------------------------------|
A ||5-3-0-0-5-3-0-0-5-3-0-0-5-3-0---5--3-1-0-5-3-1-0-5-3-1-0-5-3-1--|
D ||----------------------------------------------------------------|

G -----------------------------------------------||
D -----------------------------------------------||
A 7--5-3-0-7-5-3-0-7-5-3-0-7-5-3--000-444-777-444|| x2
D -----------------------------------------------||

(5:27)
G --------------------------------------------------|
D --------------------------------------------------|
A 555------111---------333--3~~~--000-444-777-444---|  x2
D --------------------------------------------------|


OUTRO (5:51)
G ||----------------------------------------------------------------|
D ||----------------------------------------------------------------|
A ||----------------1-1-1-1-1-1-1-1-3-3-3-3-3-3-3-3-----------------|
D ||0-0-0-0-0-0-0-0---------------------------------3-3-3-3-3-3-3-3-|
                                                                          x2
G ------------------------------------------------------------------------||
D ---------------------------------3---3---3---3---3---3---3/7-5-3-5-3-5-3||
A ----------------0-0-0-0-1-1-1-1---33--33--33--33--33--33----------------||
D 5-5-5-5-5-5-5-5---------------------------------------------------------||


G ---------------------------------------|
D ---------------------------------------|
A --------1----1-0-1-3-------------0-----|  x2
D 0---------------------------3----------|

Last note
G --------------------------------|
D --------------------------------|
A --------------------------------|
D 0-------------------------------|

            
            
Suggest correction
Creating personal tab
Creating personal tab
You can edit any tab online and save it as your Personal.

You can edit, replace or remove any tab part or add personal notes – all changes will be seen only by you.

Personal tabs can be accessed anytime from any device, even offline.
Learn more »
comments
print report bad tab
3 comments total.
0 reply
totalxanarchy 212 Jan 15, 2008 01:42 PM

one star? how did i get one star on this? a reason wud be nice, to anyone who wants to put one.

+1 reply
SoftParade1967 522 Jan 17, 2008 03:12 PM

I have no idea how this got a one! This is an awesome tab! Love how you put the duel guitar part! 5*

+1 reply
xmari3nx 31 Jun 29, 2008 11:28 AM

this tab is like so 100% right and he put like alot of good info through out the whole song best tab i have ever seen!

guest
You may want to rate the tab now too:
select rating
Wanna post a correction for this tab? Suggest correction