Oops, an error
Loading. Please wait.
67,476 views 39 this week
5 commentsread comments
1 2 3 4 5
x 13
add to favorites
×
Save as Personal and add changes to this tab that will be seen only by you. Learn more ›
×
You can save this tab as Personal to edit and correct it or add notes. All changes will be seen only by you. Learn more »
launch autoscroll
font size
0
reset
how to read this tab
guitar tuner
backing track
0:00
0:00
edit
Autoscroll
slow
fast
+/-
esc
set tempo
stop
Nightmare - Avenged Sevenfold 2010

Tabbed this in around 5 hours with the great help of Avenged Sevenfold's lyric video for 
song. Can't wait for the new album to come out and I'm a huge fan, although it won't be 
the same without The Rev's sick drumming.
I'm 99% sure the rhythm guitar parts are correct, and the riffs are mostly correct; 
it's hard to know due to the weird harmonies and outside notes Syn and Zacky love to use. 
my best for the solo, makes a passable impression for now.
So have a go at learning it! Most of the parts are pretty simple apart from the solos 
it's not impossible. As far as I'm aware this is the first full tab available... at least 
hope so seeing how much studying time I wasted on it.

RIP Jimmy, foREVer

Thanks for reading and playing,
Tim

Due to making this is guitar pro it's not that well formatted for text... it'll take a 
of thought to work out the parts and you're probably better off with guitar pro.

Oh yeah, and see me jamming (not a7x unfortunately!) at www.youtube.com/dadisgreat1. Cheers.

Drop D - DADGBE

Guitar 1 - Most of the interesting stuff's on this part, solo included.

     |--3-|   |--3-|  |--3-|  |--3-|     |--3--|       |--3--|  |--3--|
     Q    E   Q    E  Q    E  Q    E     E  E  E  Q    E  E  E  E  E  E
E||-----------------------------------|----------------------------------|
B||-----------------------------------|----------------------------------|
G||-----------------------------------|-------------------------------6--|
D||--0-------/7----7--6----6--5----5--|--3--0-----0----------5--7--8-----|
A||--0----0---------------------------|--------0-------4--7--------------|
D||--0----0---------------------------|----------------------------------|


  |--3-|   |--3-|  |--3-|  |--3-|     |--3--|       |--3--|  |--3--|
  Q    E   Q    E  Q    E  Q    E     E  E  E  Q    E  E  E  E  E  E
-----------------------------------|----------------------------------|
-----------------------------------|----------------------------------|
-----------------------------------|-------------------------------6--|
--0-------/7----7--6----6--5----5--|--3--0-----0----------5--7--8-----|
--0----0---------------------------|--------0-------4--7--------------|
--0----0---------------------------|----------------------------------|


  |--3-|   |--3-|  |--3-|  |--3-|     |--3--|       |--3--|  |--3--|
  Q    E   Q    E  Q    E  Q    E     E  E  E  Q    E  E  E  E  E  E
-----------------------------------|----------------------------------|
-----------------------------------|----------------------------------|
-----------------------------------|-------------------------------6--|
--0-------/7----7--6----6--5----5--|--3--0-----0----------5--7--8-----|
--0----0---------------------------|--------0-------4--7--------------|
--0----0---------------------------|----------------------------------|


  |--3-|   |--3-|  |--3-|  |--3-|     |--3--|       |--3--|  |--3--|
  Q    E   Q    E  Q    E  Q    E     E  E  E  Q    E  E  E  E  E  E
-----------------------------------|----------------------------------|
-----------------------------------|----------------------------------|
-----------------------------------|-------------------------------6--|
--0-------/7----7--6----6--5----5--|--3--0-----0----------5--7--8-----|
--0----0---------------------------|--------0-------4--7--------------|
--0----0---------------------------|----------------------------------|


   |-----3-----|  |--3-|   3
   H        E  E  Q    E   Q.        H         H           W
----------------------------------|---------------------|-------------------|
----------------------------------|---------------------|-------------------|
--/3--------L--2----------/7------|--5--------/9--------|--L----------------|
------------------5----L----------|---------------------|-------------------|
----------------------------------|---------------------|-------------------|
----------------------------------|---------------------|-------------------|


  S S S S S S S S S S S S S S S S    S S S S S S S S S S S S S S S S
----------------------------------|----------------------------------|
----------------------------------|----------------------------------|
----------------------------------|----------------------------------|
----------------------------------|----------------------------------|
----------------------------------|----------------------------------|
--0-0-0-0-0-0-0-0-0-0-0-0-0-0-0-0-|--0-0-0-0-0-0-0-0-0-0-0-0-0-0-0-0-|


  S S S S S S S S S S S S S S S S    S S S S S S S S S S S S S S S S
----------------------------------|----------------------------------|
----------------------------------|----------------------------------|
----------------------------------|----------------------------------|
----------------------------------|----------------------------------|
----------------------------------|----------------------------------|
--0-0-0-0-0-0-0-0-0-0-0-0-0-0-0-0-|--0-0-0-0-0-0-0-0-0-0-0-0-0-0-0-0-|


  Q    E   Q    S S S S S S    Q    E   Q    S S S S S S
----------------------------|----------------------------|
----------------------------|----------------------------|
----------------------------|----------------------------|
--3----L\-------------------|--3----L\-------------------|
--3----L\-------------------|--3----L\-------------------|
--3----L\--0----0-0-0-0-0-0-|--3----L\--0----0-0-0-0-0-0-|


                               PM PM PM PM PM PM PM PM PM PM PM PM PM PM PM PM
  Q    E   Q    S S S S S S    S  S  S  S  S  S  S  S  S  S  S  S  S  S  S  S
----------------------------|--------------------------------------------------|
----------------------------|--------------------------------------------------|
----------------------------|--------------------------------------------------|
--3----L\-------------------|--------------------------------------------------|
--3----L\-------------------|--------------------------------------------------|
--3----L\--0----0-0-0-0-0-0-|--6--3--5--3--5--3--0--3--6--3--5--3--5--3--0--3--|


  Q    E   Q    S S S S S S    Q    E   Q    S S S S S S
----------------------------|----------------------------|
----------------------------|----------------------------|
----------------------------|----------------------------|
--3----L\-------------------|--3----L\-------------------|
--3----L\-------------------|--3----L\-------------------|
--3----L\--0----0-0-0-0-0-0-|--3----L\--0----0-0-0-0-0-0-|


                               PM PM PM PM PM PM PM PM PM PM PM PM PM PM PM PM
  Q    E   Q    S S S S S S    S  S  S  S  S  S  S  S  S  S  S  S  S  S  S  S
----------------------------|--------------------------------------------------|
----------------------------|--------------------------------------------------|
----------------------------|--------------------------------------------------|
--3----L\-------------------|--------------------------------------------------|
--3----L\-------------------|--------------------------------------------------|
--3----L\--0----0-0-0-0-0-0-|--6--3--5--3--5--3--0--3--6--3--5--3--5--3--0--3--|


  Q    E  E  E  E  E  E     E  E  E  E  E  E  E  E     E  E  E  E  E  E  E  E
-------------------------|--------------------------|--------------------------|
-------------------------|--------------------------|--------------------------|
-------------------------|--------------------------|--------------------------|
--3-------------3--------|--3--------3--------3-----|--3--------3--------3-----|
--3-------------3--------|--3--------3--------3-----|--3--------3--------3-----|
--3----0--0--0--3--0--0--|--3--0--0--3--0--0--3--0--|--3--0--0--3--0--0--3--0--|


  PM PM PM PM PM PM PM PM PM PM PM PM PM PM PM PM
  S  S  S  S  S  S  S  S  S  S  S  S  S  S  S  S     Q    E  E  E  E  E  E
--------------------------------------------------|-------------------------|
--------------------------------------------------|-------------------------|
--------------------------------------------------|-------------------------|
--------------------------------------------------|--3-------------3--------|
--------------------------------------------------|--3-------------3--------|
--6--3--5--3--5--3--0--3--6--3--5--3--5--3--0--3--|--3----0--0--0--3--0--0--|


  E  E  E  E  E  E  E  E     E  E  E  E  E  E  E  E
--------------------------|--------------------------|
--------------------------|--------------------------|
--------------------------|--------------------------|
--3--------3--------3-----|--3--------3--------3-----|
--3--------3--------3-----|--3--------3--------3-----|
--3--0--0--3--0--0--3--0--|--3--0--0--3--0--0--3--0--|


  PM PM PM PM PM PM PM PM PM PM PM PM PM PM PM PM
  S  S  S  S  S  S  S  S  S  S  S  S  S  S  S  S
--------------------------------------------------|
--------------------------------------------------|
--------------------------------------------------|
--------------------------------------------------|
--------------------------------------------------|
--6--3--5--3--5--3--0--3--6--3--5--3--5--3--0--3--|


  S S S S S S S S S S S S S S S S    W                   W
----------------------------------|-------------------|-------------------|
----------------------------------|-------------------|-------------------|
----------------------------------|-------------------|--5----------------|
----------------------------------|--0----------------|--5----------------|
----------------------------------|--0----------------|--3----------------|
--6-3-5-3-5-3-0-3-6-3-5-3-5-3-0-3-|--0----------------|-------------------|


  W                   W                   W                   W
-------------------|-------------------|-------------------|-------------------|
-------------------|-------------------|-------------------|-------------------|
-------------------|--3----------------|-------------------|--5----------------|
--3----------------|--3----------------|--0----------------|--5----------------|
--3----------------|--1----------------|--0----------------|--3----------------|
--3----------------|-------------------|--0----------------|-------------------|


  W                   W                   E  E  E  E  E  E  E  E
-------------------|-------------------|--------------------------|
-------------------|-------------------|--------------------------|
-------------------|--3----------------|--2--------2--------2-----|
--3----------------|--3----------------|--2--2--2--2--2--2--2--2--|
--3----------------|--1----------------|--0--0--0--0--0--0--0--0--|
--3----------------|-------------------|--------------------------|


  E  E  H.              S S S S S S S S S S S S S S S S
---------------------|----------------------------------|
---------------------|----------------------------------|
--2------------------|----------------------------------|
--2------------------|----------------------------------|
--0------------------|----------------------------------|
---------------------|--0-0-0-0-0-0-0-0-0-0-0-0-0-0-0-0-|


  S S S S S S S S S S S S S S S S    S S S S S S S S S S S S S S S S
----------------------------------|----------------------------------|
----------------------------------|----------------------------------|
----------------------------------|----------------------------------|
----------------------------------|----------------------------------|
----------------------------------|----------------------------------|
--0-0-0-0-0-0-0-0-0-0-0-0-0-0-0-0-|--0-0-0-0-0-0-0-0-0-0-0-0-0-0-0-0-|


  S S S S S S S S S S S S S S S S    Q    E   Q    S S S S S S
----------------------------------|----------------------------|
----------------------------------|----------------------------|
----------------------------------|----------------------------|
----------------------------------|--3----L\-------------------|
----------------------------------|--3----L\-------------------|
--0-0-0-0-0-0-0-0-0-0-0-0-0-0-0-0-|--3----L\--0----0-0-0-0-0-0-|


  Q    E   Q    S S S S S S    Q    E   Q    S S S S S S
----------------------------|----------------------------|
----------------------------|----------------------------|
----------------------------|----------------------------|
--3----L\-------------------|--3----L\-------------------|
--3----L\-------------------|--3----L\-------------------|
--3----L\--0----0-0-0-0-0-0-|--3----L\--0----0-0-0-0-0-0-|


  PM PM PM PM PM PM PM PM PM PM PM PM PM PM PM PM
  S  S  S  S  S  S  S  S  S  S  S  S  S  S  S  S     Q    E   Q    S S S S S S
--------------------------------------------------|----------------------------|
--------------------------------------------------|----------------------------|
--------------------------------------------------|----------------------------|
--------------------------------------------------|--3----L\-------------------|
--------------------------------------------------|--3----L\-------------------|
--6--3--5--3--5--3--0--3--6--3--5--3--5--3--0--3--|--3----L\--0----0-0-0-0-0-0-|


  Q    E   Q    S S S S S S    Q    E   Q    S S S S S S
----------------------------|----------------------------|
----------------------------|----------------------------|
----------------------------|----------------------------|
--3----L\-------------------|--3----L\-------------------|
--3----L\-------------------|--3----L\-------------------|
--3----L\--0----0-0-0-0-0-0-|--3----L\--0----0-0-0-0-0-0-|


  PM PM PM PM PM PM PM PM PM PM PM PM PM PM PM PM
  S  S  S  S  S  S  S  S  S  S  S  S  S  S  S  S     Q    E  E  E  E  E  E
--------------------------------------------------|-------------------------|
--------------------------------------------------|-------------------------|
--------------------------------------------------|-------------------------|
--------------------------------------------------|--3-------------3--------|
--------------------------------------------------|--3-------------3--------|
--6--3--5--3--5--3--0--3--6--3--5--3--5--3--0--3--|--3----0--0--0--3--0--0--|


  E  E  E  E  E  E  E  E     E  E  E  E  E  E  E  E
--------------------------|--------------------------|
--------------------------|--------------------------|
--------------------------|--------------------------|
--3--------3--------3-----|--3--------3--------3-----|
--3--------3--------3-----|--3--------3--------3-----|
--3--0--0--3--0--0--3--0--|--3--0--0--3--0--0--3--0--|


  PM PM PM PM PM PM PM PM PM PM PM PM PM PM PM PM
  S  S  S  S  S  S  S  S  S  S  S  S  S  S  S  S     Q    E  E  E  E  E  E
--------------------------------------------------|-------------------------|
--------------------------------------------------|-------------------------|
--------------------------------------------------|-------------------------|
--------------------------------------------------|--3-------------3--------|
--------------------------------------------------|--3-------------3--------|
--6--3--5--3--5--3--0--3--6--3--5--3--5--3--0--3--|--3----0--0--0--3--0--0--|


  E  E  E  E  E  E  E  E     E  E  E  E  E  E  E  E
--------------------------|--------------------------|
--------------------------|--------------------------|
--------------------------|--------------------------|
--3--------3--------3-----|--3--------3--------3-----|
--3--------3--------3-----|--3--------3--------3-----|
--3--0--0--3--0--0--3--0--|--3--0--0--3--0--0--3--0--|


  PM PM PM PM PM PM PM PM PM PM PM PM PM PM PM PM
  S  S  S  S  S  S  S  S  S  S  S  S  S  S  S  S
--------------------------------------------------|
--------------------------------------------------|
--------------------------------------------------|
--------------------------------------------------|
--------------------------------------------------|
--6--3--5--3--5--3--0--3--6--3--5--3--5--3--0--3--|


  S S S S S S S S S S S S S S S S    W                   W
----------------------------------|-------------------|-------------------|
----------------------------------|-------------------|-------------------|
----------------------------------|-------------------|--5----------------|
----------------------------------|--0----------------|--5----------------|
----------------------------------|--0----------------|--3----------------|
--6-3-5-3-5-3-0-3-6-3-5-3-5-3-0-3-|--0----------------|-------------------|


  W                   W                   W                   W
-------------------|-------------------|-------------------|-------------------|
-------------------|-------------------|-------------------|-------------------|
-------------------|--3----------------|-------------------|--5----------------|
--3----------------|--3----------------|--0----------------|--5----------------|
--3----------------|--1----------------|--0----------------|--3----------------|
--3----------------|-------------------|--0----------------|-------------------|


  W                   W                   W                   W
-------------------|-------------------|-------------------|-------------------|
-------------------|-------------------|-------------------|-------------------|
-------------------|--3----------------|-------------------|--5----------------|
--3----------------|--3----------------|--0----------------|--5----------------|
--3----------------|--1----------------|--0----------------|--3----------------|
--3----------------|-------------------|--0----------------|-------------------|


  W                   W                   W                   W
-------------------|-------------------|-------------------|-------------------|
-------------------|-------------------|-------------------|-------------------|
-------------------|--3----------------|-------------------|--5----------------|
--3----------------|--3----------------|--0----------------|--5----------------|
--3----------------|--1----------------|--0----------------|--3----------------|
--3----------------|-------------------|--0----------------|-------------------|


  W                   W                   E  E  E  E  E  E  E  E
-------------------|-------------------|--------------------------|
-------------------|-------------------|--------------------------|
-------------------|--3----------------|--2--------2--------2-----|
--3----------------|--3----------------|--2--2--2--2--2--2--2--2--|
--3----------------|--1----------------|--0--0--0--0--0--0--0--0--|
--3----------------|-------------------|--------------------------|


                                        |--3-|    |--3--|   |--3--|   |--3--|
  E  E  H.                              Q    E    Q     E   Q     E   Q     E
---------------------|---------------|----------/13----13--12----12--11----11--|
---------------------|---------------|-----------------------------------------|
--2------------------|---------------|-----------------------------------------|
--2------------------|---------------|--0--------------------------------------|
--0------------------|---------------|--0----0---------------------------------|
---------------------|---------------|--0----0---------------------------------|


   |---3--|        |--3--|   |---3--|
   E   E  H        E  E  E   E   E  E
--10--------------------------------9--|
------10--L--------------8--10--11-----|
-------------------6--9----------------|
---------------------------------------|
---------------------------------------|
---------------------------------------|


   3        |--3--|   |--3--|   |--3--|
   Q.       Q     E   Q     E   Q     E
--10------/13----13--12----12--11----11--|
-----------------------------------------|
-----------------------------------------|
-----------------------------------------|
-----------------------------------------|
-----------------------------------------|


   |---3---|        |---3--|  |---3--|      3       |---3--|  3        3
   E   E   E   Q    E  E   E  E  E   E      Q.      E   E  E  Q.       Q.
--10------------------------------------|-------------------------------------|
------10------10--------------8--9--10--|--11------11--10--9--8------/15------|
----------10--------7--9--10------------|-------------------------------------|
----------------------------------------|-------------------------------------|
----------------------------------------|-------------------------------------|
----------------------------------------|-------------------------------------|


   |------3------|                               |-----9-----|  9  9  9  9
   H         E   E    H            H.            T  T  T  T  T  T  T  T  T
-------------------------------|--17---------------------------------14-15-|
--13--------12--13--/17--------|-------------------------13-15-16-17-------|
-------------------------------|----------------14-15-16-------------------|
-------------------------------|-------------------------------------------|
-------------------------------|-------------------------------------------|
-------------------------------|-------------------------------------------|


                 |-----9-----|  9  9  9  9
   H.            T  T  T  T  T  T  T  T  T     H        E   Q      E
--16---------------------------------13-14-|--15--------L--15b-----L--|
-------------------------13-15-16-17-------|--------------------------|
----------------14-15-16-------------------|--------------------------|
-------------------------------------------|--------------------------|
-------------------------------------------|--------------------------|
-------------------------------------------|--------------------------|


                         |--3--|  |--3--|     |-----3-----|     3       3
   H         S  S  S  S  S  S  S  S  S  S     Q     Q     Q     Q.      Q.
--13--------17-13-------17-13-------------|------------------------------------|
------------------15----------15----------|--------------10----11------10------|
---------------------14----------14-------|--------10--------------------------|
------------------------------------15----|--12--------------------------------|
---------------------------------------16-|------------------------------------|
------------------------------------------|------------------------------------|


   |-----3-----|     3       3          3         3   3      3       3
   Q     Q     Q     Q.      Q.         H         E   Q      Q.      Q
------------------------------------|--15b--------L---Lb------------13----|
--------------10----11------10------|-----------------------15------------|
--------10--------------------------|-------------------------------------|
--12--------------------------------|-------------------------------------|
------------------------------------|-------------------------------------|
------------------------------------|-------------------------------------|


   |-----3-----|     3
   Q     Q     Q     H.
--12----13----15----15b------------|
-----------------------------------|
-----------------------------------|
-----------------------------------|
-----------------------------------|
-----------------------------------|


  |-3-| |-3-| |-3-| |-3-| |-3-| |-3-|  |--3--|  |--3--|
  S S S S S S S S S S S S S S S S S S  S  S  S  S  S  S
--------------------------------------------------------|
--------------------------------------------------------|
--7-7-7-7-7-7-7-7-7-7-7-7-7-7-7-7-7-7-10-10-10-10-10-10-|
--------------------------------------------------------|
--------------------------------------------------------|
--------------------------------------------------------|


  |-3-| |-3-| |-3-| |-3-| |-3-| |-3-|  |--3--|  |--3--|
  S S S S S S S S S S S S S S S S S S  S  S  S  S  S  S
--------------------------------------------------------|
--------------------------------------------------------|
--5-5-5-5-5-5-5-5-5-5-5-5-5-5-5-5-5-5-12-12-12-12-12-12-|
--------------------------------------------------------|
--------------------------------------------------------|
--------------------------------------------------------|


  |-3-| |-3-| |-3-| |-3-| |-3-| |-3-|  |--3--|  |--3--|
  S S S S S S S S S S S S S S S S S S  S  S  S  S  S  S
--------------------------------------------------------|
--------------------------------------------------------|
--4-4-4-4-4-4-4-4-4-4-4-4-4-4-4-4-4-4-10-10-10-10-10-10-|
--------------------------------------------------------|
--------------------------------------------------------|
--------------------------------------------------------|


  |-3-| |-3-| |-3-| |-3-| |-3-| |-3-| |-3-| |-3-|
  S S S S S S S S S S S S S S S S S S S S S S S S
--------------------------------------------------|
--------------------------------------------------|
--2-2-2-2-5-5-5-5-2-2-2-2-------------------------|
--------------------------5-5-5-5-3-3-3-3-3-3-3-3-|
--------------------------------------------------|
--------------------------------------------------|


  PM PM PM PM PM PM PM PM
  S  S  S  S  S  S  S  S  S S S S S S S S
----------------------------------------5-|
----------------------------------5-6-8---|
--------------------------6-7-6-7---------|
--------------6--7--6--7------------------|
--7--8--7--8------------------------------|
------------------------------------------|


    S  S  S  S  S  S  S  S   Q     Q        Q     S  S  S  S  Q     S  S  S  S
--/17-16-15-13--------------------------|--------------12-13-15----15-14-13-12-|
---------------15-14-------/15----14----|--15----14-15-------------------------|
---------------------15-14--------------|--------------------------------------|
----------------------------------------|--------------------------------------|
----------------------------------------|--------------------------------------|
----------------------------------------|--------------------------------------|


   Q     S  S  S  S  Q     Q        H.           Q        H        H
--------13-14-15-16-18----17----|---------------------|---------------------|
--13----------------------------|---------------------|---------------------|
--------------------------------|---------------------|---------------------|
--------------------------------|--/7------------7----|--/6--------5--------|
--------------------------------|---------------------|---------------------|
--------------------------------|---------------------|---------------------|


  E  E  E  E  H           W
-----------------------|-------------------|-------|-------|-------|-------|
-----------------------|-------------------|-------|-------|-------|-------|
-----------------------|-------------------|-------|-------|-------|-------|
--3--0-----0--L--------|--L----------------|-------|-------|-------|-------|
--------0--------------|-------------------|-------|-------|-------|-------|
-----------------------|-------------------|-------|-------|-------|-------|


                                  S  S S  S  S  S  S  S  S  S S  S S  S S  S
-------|-------|-------|-------|------------------------------9-10-9----9-10-|
-------|-------|-------|-------|------------10-11-10----10-11--------11------|
-------|-------|-------|-------|-------9-10----------10----------------------|
-------|-------|-------|-------|--8-11---------------------------------------|
-------|-------|-------|-------|---------------------------------------------|
-------|-------|-------|-------|---------------------------------------------|


   S  S  S  S  S  S  S  S  H            H.           Q
--12-13-12-10-12-15-16-17-18--------|---------------------|
------------------------------------|---------------------|
------------------------------------|---------------------|
------------------------------------|--/7------------7----|
------------------------------------|---------------------|
------------------------------------|---------------------|


   H        H           E  E  E  E  H           W
---------------------|-----------------------|-------------------|-------|
---------------------|-----------------------|-------------------|-------|
---------------------|-----------------------|-------------------|-------|
--/6--------5--------|--3--0-----0--L--------|--L----------------|-------|
---------------------|--------0--------------|-------------------|-------|
---------------------|-----------------------|-------------------|-------|


                                                          Q    Q    Q    Q
-------|-------|-------|-------|-------|-------|-------|----------------------|
-------|-------|-------|-------|-------|-------|-------|----------------------|
-------|-------|-------|-------|-------|-------|-------|--3----3----3----3----|
-------|-------|-------|-------|-------|-------|-------|--3----3----3----3----|
-------|-------|-------|-------|-------|-------|-------|--1----1----1----1----|
-------|-------|-------|-------|-------|-------|-------|----------------------|


  Q    Q    Q    Q       Q    Q    Q    Q       Q    Q    Q    Q
----------------------|----------------------|----------------------|
----------------------|----------------------|----------------------|
--5----5----5----5----|--3----3----3----3----|--5----5----5----5----|
--5----5----5----5----|--3----3----3----3----|--5----5----5----5----|
--3----3----3----3----|--1----1----1----1----|--3----3----3----3----|
----------------------|----------------------|----------------------|


  Q    Q    Q    Q       Q    Q    Q    Q       Q    Q     Q     Q
----------------------|----------------------|------------------------|
----------------------|----------------------|------------------------|
--3----3----3----3----|--5----5----5----5----|--3----3----------------|
--3----3----3----3----|--5----5----5----5----|--3----3-----9-----9----|
--1----1----1----1----|--3----3----3----3----|--1----1----10----10----|
----------------------|----------------------|-------------9-----9----|


   Q     Q     Q     Q       S S S S S S S S S S S S S S S S
--------------------------|----------------------------------|
--------------------------|----------------------------------|
--------------------------|----------------------------------|
--10----10----11----11----|----------------------------------|
--10----10----12----12----|----------------------------------|
--10----10----11----11----|--0-0-0-0-0-0-0-0-0-0-0-0-0-0-0-0-|


  S S S S S S S S S S S S S S S S    S S S S S S S S S S S S S S S S
----------------------------------|----------------------------------|
----------------------------------|----------------------------------|
----------------------------------|----------------------------------|
----------------------------------|----------------------------------|
----------------------------------|----------------------------------|
--0-0-0-0-0-0-0-0-0-0-0-0-0-0-0-0-|--0-0-0-0-0-0-0-0-0-0-0-0-0-0-0-0-|


  S S S S S S S S S S S S S S S S    W                   W
----------------------------------|-------------------|-------------------|
----------------------------------|-------------------|-------------------|
----------------------------------|-------------------|--5----------------|
----------------------------------|--0----------------|--5----------------|
----------------------------------|--0----------------|--3----------------|
--0-0-0-0-0-0-0-0-0-0-0-0-0-0-0-0-|--0----------------|-------------------|


  W                   W                   W                   W
-------------------|-------------------|-------------------|-------------------|
-------------------|-------------------|-------------------|-------------------|
-------------------|--3----------------|-------------------|--5----------------|
--3----------------|--3----------------|--0----------------|--5----------------|
--3----------------|--1----------------|--0----------------|--3----------------|
--3----------------|-------------------|--0----------------|-------------------|


  W                   W                   W                   W
-------------------|-------------------|-------------------|-------------------|
-------------------|-------------------|-------------------|-------------------|
-------------------|--3----------------|-------------------|--5----------------|
--3----------------|--3----------------|--0----------------|--5----------------|
--3----------------|--1----------------|--0----------------|--3----------------|
--3----------------|-------------------|--0----------------|-------------------|


  W                   W                   W                   W
-------------------|-------------------|-------------------|-------------------|
-------------------|-------------------|-------------------|-------------------|
-------------------|--3----------------|-------------------|--5----------------|
--3----------------|--3----------------|--0----------------|--5----------------|
--3----------------|--1----------------|--0----------------|--3----------------|
--3----------------|-------------------|--0----------------|-------------------|


  W                   W                   E  E  E  E  E  E  E  E
-------------------|-------------------|--------------------------|
-------------------|-------------------|--------------------------|
-------------------|--3----------------|--2--------2--------2-----|
--3----------------|--3----------------|--2--2--2--2--2--2--2--2--|
--3----------------|--1----------------|--0--0--0--0--0--0--0--0--|
--3----------------|-------------------|--------------------------|


  E  E  H.
---------------------||
---------------------||
--2------------------||
--2------------------||
--0------------------||
---------------------||


Guitar 2 - Mainly harmonies (not too sure about these!) and some rhythm parts.


     |--3-|    |--3--|  |--3-|  |--3-|     |--3--|       |--3--|   |---3--|
     Q    E    Q     E  Q    E  Q    E     E  E  E  Q    E  E  E   E   E  E
E||-------------------------------------|---------------------------------9--|
B||----------/10----10--9----9--8----8--|--6-------------------8--10--11-----|
G||-------------------------------------|-----7-----7----6--9----------------|
D||--0----------------------------------|--------7---------------------------|
A||--0----0-----------------------------|------------------------------------|
D||--0----0-----------------------------|------------------------------------|


  |--3-|    |--3--|  |--3-|  |--3-|     |--3--|       |--3--|   |---3--|
  Q    E    Q     E  Q    E  Q    E     E  E  E  Q    E  E  E   E   E  E
-------------------------------------|---------------------------------9--|
----------/10----10--9----9--8----8--|--6-------------------8--10--11-----|
-------------------------------------|-----7-----7----6--9----------------|
--0----------------------------------|--------7---------------------------|
--0----0-----------------------------|------------------------------------|
--0----0-----------------------------|------------------------------------|


  |--3-|    |--3--|  |--3-|  |--3-|     |--3--|       |--3--|   |---3--|
  Q    E    Q     E  Q    E  Q    E     E  E  E  Q    E  E  E   E   E  E
-------------------------------------|---------------------------------9--|
----------/10----10--9----9--8----8--|--6-------------------8--10--11-----|
-------------------------------------|-----7-----7----6--9----------------|
--0----------------------------------|--------7---------------------------|
--0----0-----------------------------|------------------------------------|
--0----0-----------------------------|------------------------------------|


  |--3-|    |--3--|  |--3-|  |--3-|     |--3--|       |--3--|   |---3--|
  Q    E    Q     E  Q    E  Q    E     E  E  E  Q    E  E  E   E   E  E
-------------------------------------|---------------------------------9--|
----------/10----10--9----9--8----8--|--6-------------------8--10--11-----|
-------------------------------------|-----7-----7----6--9----------------|
--0----------------------------------|--------7---------------------------|
--0----0-----------------------------|------------------------------------|
--0----0-----------------------------|------------------------------------|


    |------3-----|   |--3-|    3                                 ---   ---
    H        E   E   Q    E    Q.         H          H
--------------------------------------|-----------------------|-----|-----|
--/11--------L--10-----------/15------|--13--------/17--------|-----|-----|
--------------------12----L-----------|-----------------------|-----|-----|
--------------------------------------|-----------------------|-----|-----|
--------------------------------------|-----------------------|-----|-----|
--------------------------------------|-----------------------|-----|-----|


  ---   ---
              H.             Q
-----|-----|-----------------------|-------|-------|-------|-------|-------|
-----|-----|-----------------------|-------|-------|-------|-------|-------|
-----|-----|-----------------------|-------|-------|-------|-------|-------|
-----|-----|-----------------------|-------|-------|-------|-------|-------|
-----|-----|-----------------------|-------|-------|-------|-------|-------|
-----|-----|---------------/12\----|-------|-------|-------|-------|-------|


                          Q    Q    Q    Q       Q    H.
-------|-------|-------|----------------------|--------------------|
-------|-------|-------|----------------------|--------------------|
-------|-------|-------|----------------------|--------------------|
-------|-------|-------|-------7----6----5----|--3-----------------|
-------|-------|-------|----------------------|--------------------|
-------|-------|-------|----------------------|--------------------|


  Q    Q    Q    Q       Q    H.              Q    Q    Q    Q
----------------------|--------------------|----------------------|
----------------------|--------------------|----------------------|
----------------------|--------------------|----------------------|
-------7----6----5----|--3-----------------|-------7----6----5----|
----------------------|--------------------|----------------------|
----------------------|--------------------|----------------------|


  E   E  H.              Q    Q    Q    Q       Q    H.
----------------------|----------------------|--------------------|
----------------------|----------------------|--------------------|
----------------------|----------------------|--------------------|
--3p--0---------------|-------7----6----5----|--3-----------------|
----------------------|----------------------|--------------------|
----------------------|----------------------|--------------------|


---------------|---------------|---------------|---------------|---------------|
---------------|---------------|---------------|---------------|---------------|
---------------|---------------|---------------|---------------|---------------|
---------------|---------------|---------------|---------------|---------------|
---------------|---------------|---------------|---------------|---------------|
---------------|---------------|---------------|---------------|---------------|


---------------|---------------|---------------|---------------|---------------|
---------------|---------------|---------------|---------------|---------------|
---------------|---------------|---------------|---------------|---------------|
---------------|---------------|---------------|---------------|---------------|
---------------|---------------|---------------|---------------|---------------|
---------------|---------------|---------------|---------------|---------------|


                  ---   ---   ---
                                    H.             Q
---------------|-----|-----|-----|-----------------------|-------|-------|
---------------|-----|-----|-----|-----------------------|-------|-------|
---------------|-----|-----|-----|-----------------------|-------|-------|
---------------|-----|-----|-----|-----------------------|-------|-------|
---------------|-----|-----|-----|-----------------------|-------|-------|
---------------|-----|-----|-----|---------------/12\----|-------|-------|


-------|-------|-------|-------|-------|-------|-------|-------|-------|-------|
-------|-------|-------|-------|-------|-------|-------|-------|-------|-------|
-------|-------|-------|-------|-------|-------|-------|-------|-------|-------|
-------|-------|-------|-------|-------|-------|-------|-------|-------|-------|
-------|-------|-------|-------|-------|-------|-------|-------|-------|-------|
-------|-------|-------|-------|-------|-------|-------|-------|-------|-------|


-------|-------|-------|-------|-------|-------|-------|-------|-------|-------|
-------|-------|-------|-------|-------|-------|-------|-------|-------|-------|
-------|-------|-------|-------|-------|-------|-------|-------|-------|-------|
-------|-------|-------|-------|-------|-------|-------|-------|-------|-------|
-------|-------|-------|-------|-------|-------|-------|-------|-------|-------|
-------|-------|-------|-------|-------|-------|-------|-------|-------|-------|


-------|-------|-------|-------|-------|-------|-------|-------|-------|-------|
-------|-------|-------|-------|-------|-------|-------|-------|-------|-------|
-------|-------|-------|-------|-------|-------|-------|-------|-------|-------|
-------|-------|-------|-------|-------|-------|-------|-------|-------|-------|
-------|-------|-------|-------|-------|-------|-------|-------|-------|-------|
-------|-------|-------|-------|-------|-------|-------|-------|-------|-------|


                                  |--3-|    |--3--|  |--3-|  |--3-|
                                  Q    E    Q     E  Q    E  Q    E
-------|-------|-------|-------|-------------------------------------|
-------|-------|-------|-------|----------/10----10--9----9--8----8--|
-------|-------|-------|-------|-------------------------------------|
-------|-------|-------|-------|--0----------------------------------|
-------|-------|-------|-------|--0----0-----------------------------|
-------|-------|-------|-------|--0----0-----------------------------|


  |--3--|        |---3--|  |---3---|      3        |--3--|  |--3-|  |--3-|
  E  E  H        E  E   E  E   E   E      Q.       Q     E  Q    E  Q    E
---------------------------9--10--12--|--13---------------------------------|
--6-----------------8--11-------------|----------/10----10--9----9--8----8--|
-----7--L--------9--------------------|-------------------------------------|
--------------------------------------|-------------------------------------|
--------------------------------------|-------------------------------------|
--------------------------------------|-------------------------------------|


  |--3--|       |---3--|   |--3--|      3       |--3--|  3        3
  E  E  E  Q    E  E   E   E  E  E      Q.      E  E  E  Q.       Q.
------------------------------8--9--|--10------10--9--8--7------/13------|
--6----------------8--10--11--------|------------------------------------|
-----7-----7----9-------------------|------------------------------------|
--------7---------------------------|------------------------------------|
------------------------------------|------------------------------------|
------------------------------------|------------------------------------|


   |------3------|
   H         E   E   H
--12--------10--12--15--------|-----------|-----------|-----------|-----------|
------------------------------|-----------|-----------|-----------|-----------|
------------------------------|-----------|-----------|-----------|-----------|
------------------------------|-----------|-----------|-----------|-----------|
------------------------------|-----------|-----------|-----------|-----------|
------------------------------|-----------|-----------|-----------|-----------|


   |-----3-----|     3       3
   Q     Q     Q     Q.      Q.
--------------17----18------17------|-----------|-----------|-----------|
--------18--------------------------|-----------|-----------|-----------|
--19--------------------------------|-----------|-----------|-----------|
------------------------------------|-----------|-----------|-----------|
------------------------------------|-----------|-----------|-----------|
------------------------------------|-----------|-----------|-----------|


   |--3--|  |--3--|  |--3--|  |--3--|  |--3--|  |--3--|  |--3--|  |--3--|
   S  S  S  S  S  S  S  S  S  S  S  S  S  S  S  S  S  S  S  S  S  S  S  S
--10-10-10-10-10-10-10-10-10-10-10-10-10-10-10-10-10-10-15-15-15-15-15-15-|
--------------------------------------------------------------------------|
--------------------------------------------------------------------------|
--------------------------------------------------------------------------|
--------------------------------------------------------------------------|
--------------------------------------------------------------------------|


   |--3--|  |--3--|  |--3--|  |--3--|  |--3--|  |--3--|  |--3--|  |--3--|
   S  S  S  S  S  S  S  S  S  S  S  S  S  S  S  S  S  S  S  S  S  S  S  S
--------------------------------------------------------17-17-17-17-17-17-|
--13-13-13-13-13-13-13-13-13-13-13-13-13-13-13-13-13-13-------------------|
--------------------------------------------------------------------------|
--------------------------------------------------------------------------|
--------------------------------------------------------------------------|
--------------------------------------------------------------------------|


   |--3--|  |--3--|  |--3--|  |--3--|  |--3--|  |--3--|  |--3--|  |--3--|
   S  S  S  S  S  S  S  S  S  S  S  S  S  S  S  S  S  S  S  S  S  S  S  S
--------------------------------------------------------13-13-13-13-13-13-|
--------------------------------------------------------------------------|
--16-16-16-16-16-16-16-16-16-16-16-16-16-16-16-16-16-16-------------------|
--------------------------------------------------------------------------|
--------------------------------------------------------------------------|
--------------------------------------------------------------------------|


   |--3--|  |--3--|  |--3--|  |--3--| |-3-| |-3-| |-3-| |-3-|
   S  S  S  S  S  S  S  S  S  S  S  S S S S S S S S S S S S S
--------------------------------------------------------------|-----------|
--10-10-10-10-13-13-13-13-10-10-10-10-8-8-8-8-6-6-6-6-6-6-6-6-|-----------|
--------------------------------------------------------------|-----------|
--------------------------------------------------------------|-----------|
--------------------------------------------------------------|-----------|
--------------------------------------------------------------|-----------|


                                      Q    E  E  E  E  E  E
-----------|-----------|-----------|-------------------------|
-----------|-----------|-----------|-------------------------|
-----------|-----------|-----------|-------------------------|
-----------|-----------|-----------|--0----------------------|
-----------|-----------|-----------|--0-------------0--------|
-----------|-----------|-----------|--0----0--0--0--0--0--0--|


  E  E  E  E  E  E  E  E     E  E  E  E  E  E  E  E
--------------------------|--------------------------|
--------------------------|--------------------------|
--------------------------|--------------------------|
--------------------------|--------------------------|
--0--------0--------0-----|--0--------0--------0-----|
--0--0--0--0--0--0--0--0--|--0--0--0--0--0--0--0--0--|


  E  E  E  E  E  E  E  E     Q    E  E  E  E  E  E     E  E  E  E  E  E  E  E
--------------------------|-------------------------|--------------------------|
--------------------------|-------------------------|--------------------------|
--------------------------|-------------------------|--------------------------|
--------------------------|--0----------------------|--------------------------|
--0--------0--------0-----|--0-------------0--------|--0--------0--------0-----|
--0--0--0--0--0--0--0--0--|--0----0--0--0--0--0--0--|--0--0--0--0--0--0--0--0--|


  E  E  E  E  E  E  E  E     E  E  E  E  E  E  E  E     Q    E  E  E  E  E  E
--------------------------|--------------------------|-------------------------|
--------------------------|--------------------------|-------------------------|
--------------------------|--------------------------|-------------------------|
--------------------------|--------------------------|--0----------------------|
--0--------0--------0-----|--0--------0--------0-----|--0-------------0--------|
--0--0--0--0--0--0--0--0--|--0--0--0--0--0--0--0--0--|--0----0--0--0--0--0--0--|


  E  E  E  E  E  E  E  E     E  E  E  E  E  E  E  E
--------------------------|--------------------------|
--------------------------|--------------------------|
--------------------------|--------------------------|
--------------------------|--------------------------|
--0--------0--------0-----|--0--------0--------0-----|
--0--0--0--0--0--0--0--0--|--0--0--0--0--0--0--0--0--|


  E  E  E  E  E  E  E  E     Q    S  S S  S  S  S  S  S  S  S S  S
--------------------------|-----------------------------------9-10-|
--------------------------|-----------------10-11-10----10-11------|
--------------------------|------------9-10----------10------------|
--------------------------|-------8-11-----------------------------|
--0--------0--------0-----|----------------------------------------|
--0--0--0--0--0--0--0--0--|----------------------------------------|


  S  S S  S  S  S  S  S  H           Q    E  E  E  E  E  E
--9----9-10-12-13-12-10-13--------|-------------------------|
----11----------------------------|-------------------------|
----------------------------------|-------------------------|
----------------------------------|--0----------------------|
----------------------------------|--0-------------0--------|
----------------------------------|--0----0--0--0--0--0--0--|


  E  E  E  E  E  E  E  E     E  E  E  E  E  E  E  E
--------------------------|--------------------------|
--------------------------|--------------------------|
--------------------------|--------------------------|
--------------------------|--------------------------|
--0--------0--------0-----|--0--------0--------0-----|
--0--0--0--0--0--0--0--0--|--0--0--0--0--0--0--0--0--|


  E  E  E  E  E  E  E  E     Q    E  E  E  E  E  E     E  E  E  E  E  E  E  E
--------------------------|-------------------------|--------------------------|
--------------------------|-------------------------|--------------------------|
--------------------------|-------------------------|--------------------------|
--------------------------|--0----------------------|--------------------------|
--0--------0--------0-----|--0-------------0--------|--0--------0--------0-----|
--0--0--0--0--0--0--0--0--|--0----0--0--0--0--0--0--|--0--0--0--0--0--0--0--0--|


  E  E  E  E  E  E  E  E     E  E  E  E  E  E  E  E     Q    E  E  E  E  E  E
--------------------------|--------------------------|-------------------------|
--------------------------|--------------------------|-------------------------|
--------------------------|--------------------------|-------------------------|
--------------------------|--------------------------|--0----------------------|
--0--------0--------0-----|--0--------0--------0-----|--0-------------0--------|
--0--0--0--0--0--0--0--0--|--0--0--0--0--0--0--0--0--|--0----0--0--0--0--0--0--|


  E  E  E  E  E  E  E  E     E  E  E  E  E  E  E  E
--------------------------|--------------------------|
--------------------------|--------------------------|
--------------------------|--------------------------|
--------------------------|--------------------------|
--0--------0--------0-----|--0--------0--------0-----|
--0--0--0--0--0--0--0--0--|--0--0--0--0--0--0--0--0--|


  E  E  E  E  E  E  E  E
--------------------------|-----|-----|-----|-----|-----|-----|-----|-----|
--------------------------|-----|-----|-----|-----|-----|-----|-----|-----|
--------------------------|-----|-----|-----|-----|-----|-----|-----|-----|
--------------------------|-----|-----|-----|-----|-----|-----|-----|-----|
--0--------0--------0-----|-----|-----|-----|-----|-----|-----|-----|-----|
--0--0--0--0--0--0--0--0--|-----|-----|-----|-----|-----|-----|-----|-----|


-----|-----|-----|-----|-----|-----|-----|-----|-----|-----|-----|-----|-----|
-----|-----|-----|-----|-----|-----|-----|-----|-----|-----|-----|-----|-----|
-----|-----|-----|-----|-----|-----|-----|-----|-----|-----|-----|-----|-----|
-----|-----|-----|-----|-----|-----|-----|-----|-----|-----|-----|-----|-----|
-----|-----|-----|-----|-----|-----|-----|-----|-----|-----|-----|-----|-----|
-----|-----|-----|-----|-----|-----|-----|-----|-----|-----|-----|-----|-----|


-----|-----|-----|-----|-----|-----|-----|-----|-----||
-----|-----|-----|-----|-----|-----|-----|-----|-----||
-----|-----|-----|-----|-----|-----|-----|-----|-----||
-----|-----|-----|-----|-----|-----|-----|-----|-----||
-----|-----|-----|-----|-----|-----|-----|-----|-----||
-----|-----|-----|-----|-----|-----|-----|-----|-----||


Guitar 3 - Mostly rhythm guitar parts/extra stuff here.

     |-3-| |-3-| |-3-| |-3-|
     T T T T T T T T T T T T E  H        E
E||-----------------------------------------|
B||-----------------------------------------|
G||-----------------------------------------|
D||-----------------------------------------|
A||--------------------------0--------------|
D||--0-0-0-0-0-0-0-0-0-0-0-0-0--------------|


  |-3-| |-3-| |-3-| |-3-|
  T T T T T T T T T T T T E  H        E
-----------------------------------------|
-----------------------------------------|
-----------------------------------------|
-----------------------------------------|
--------------------------0--------------|
--0-0-0-0-0-0-0-0-0-0-0-0-0--------------|


  |-3-| |-3-| |-3-| |-3-|      |-3-|      |-3-|      |-3-|
  T T T T T T T T T T T T E  S T T T E  S T T T E  S T T T
-----------------------------------------------------------|
-----------------------------------------------------------|
-----------------------------------------------------------|
-----------------------------------------------------------|
--------------------------0----------0----------0----------|
--0-0-0-0-0-0-0-0-0-0-0-0-0----0-0-0-0----0-0-0-0----0-0-0-|


       |-3-|      |-3-|      |-3-|      |-3-|
  E  S T T T E  S T T T E  S T T T E  S T T T    W
----------------------------------------------|-------------------|
----------------------------------------------|-------------------|
----------------------------------------------|-------------------|
----------------------------------------------|--0----------------|
--0----------0----------0----------0----------|--0----------------|
--0----0-0-0-0----0-0-0-0----0-0-0-0----0-0-0-|--0----------------|


           |-3-| |-3-| |-3-| |-3-| |-3-| |-3-| |-3-| |-3-|
  H        T T T T T T T T T T T T T T T T T T T T T T T T    W
-----------------------------------------------------------|-------------------|
--L--------------------------------------------------------|-------------------|
-----------------------------------------------------------|-------------------|
-----------------------------------------------------------|--0----------------|
--L--------------------------------------------------------|--0----------------|
--L--------0-0-0-0-0-0-0-0-0-0-0-0-0-0-0-0-0-0-0-0-0-0-0-0-|--0----------------|


           |-3-| |-3-| |-3-| |-3-| |-3-| |-3-| |-3-| |-3-|
  H        T T T T T T T T T T T T T T T T T T T T T T T T
-----------------------------------------------------------|
--L--------------------------------------------------------|
-----------------------------------------------------------|
-----------------------------------------------------------|
--L--------------------------------------------------------|
--L--------0-0-0-0-0-0-0-0-0-0-0-0-0-0-0-0-0-0-0-0-0-0-0-0-|


                                              --   --   --   --
  H         H            H        H
---------------------|---------------------|----|----|----|----|
---------------------|---------------------|----|----|----|----|
---------------------|------------9--------|----|----|----|----|
--8---------9--------|--10--------9--------|----|----|----|----|
--8--------10--------|--10--------7--------|----|----|----|----|
--8---------9--------|--10-----------------|----|----|----|----|


  H.            Q
----------------------|-------|-------|-------|-------|-------|-------|-------|
----------------------|-------|-------|-------|-------|-------|-------|-------|
----------------------|-------|-------|-------|-------|-------|-------|-------|
---------------/0\----|-------|-------|-------|-------|-------|-------|-------|
----------------------|-------|-------|-------|-------|-------|-------|-------|
----------------------|-------|-------|-------|-------|-------|-------|-------|


-------|-------|-------|-------|-------|-------|-------|-------|-------|-------|
-------|-------|-------|-------|-------|-------|-------|-------|-------|-------|
-------|-------|-------|-------|-------|-------|-------|-------|-------|-------|
-------|-------|-------|-------|-------|-------|-------|-------|-------|-------|
-------|-------|-------|-------|-------|-------|-------|-------|-------|-------|
-------|-------|-------|-------|-------|-------|-------|-------|-------|-------|


-------|-------|-------|-------|-------|-------|-------|-------|-------|-------|
-------|-------|-------|-------|-------|-------|-------|-------|-------|-------|
-------|-------|-------|-------|-------|-------|-------|-------|-------|-------|
-------|-------|-------|-------|-------|-------|-------|-------|-------|-------|
-------|-------|-------|-------|-------|-------|-------|-------|-------|-------|
-------|-------|-------|-------|-------|-------|-------|-------|-------|-------|


  --   --   --
                 H.            Q
----|----|----|----------------------|-------|-------|-------|-------|-------|
----|----|----|----------------------|-------|-------|-------|-------|-------|
----|----|----|----------------------|-------|-------|-------|-------|-------|
----|----|----|---------------/0\----|-------|-------|-------|-------|-------|
----|----|----|----------------------|-------|-------|-------|-------|-------|
----|----|----|----------------------|-------|-------|-------|-------|-------|


-------|-------|-------|-------|-------|-------|-------|-------|-------|-------|
-------|-------|-------|-------|-------|-------|-------|-------|-------|-------|
-------|-------|-------|-------|-------|-------|-------|-------|-------|-------|
-------|-------|-------|-------|-------|-------|-------|-------|-------|-------|
-------|-------|-------|-------|-------|-------|-------|-------|-------|-------|
-------|-------|-------|-------|-------|-------|-------|-------|-------|-------|


-------|-------|-------|-------|-------|-------|-------|-------|-------|-------|
-------|-------|-------|-------|-------|-------|-------|-------|-------|-------|
-------|-------|-------|-------|-------|-------|-------|-------|-------|-------|
-------|-------|-------|-------|-------|-------|-------|-------|-------|-------|
-------|-------|-------|-------|-------|-------|-------|-------|-------|-------|
-------|-------|-------|-------|-------|-------|-------|-------|-------|-------|


-------|-------|-------|-------|-------|-------|-------|-------|-------|-------|
-------|-------|-------|-------|-------|-------|-------|-------|-------|-------|
-------|-------|-------|-------|-------|-------|-------|-------|-------|-------|
-------|-------|-------|-------|-------|-------|-------|-------|-------|-------|
-------|-------|-------|-------|-------|-------|-------|-------|-------|-------|
-------|-------|-------|-------|-------|-------|-------|-------|-------|-------|


          W
-------|-------------------|
-------|-------------------|
-------|-------------------|
-------|--0----------------|
-------|--0----------------|
-------|--0----------------|


           |-3-| |-3-| |-3-| |-3-| |-3-| |-3-| |-3-| |-3-|
  H        T T T T T T T T T T T T T T T T T T T T T T T T    W
-----------------------------------------------------------|-------------------|
--L--------------------------------------------------------|-------------------|
-----------------------------------------------------------|-------------------|
-----------------------------------------------------------|--0----------------|
--L--------------------------------------------------------|--0----------------|
--L--------0-0-0-0-0-0-0-0-0-0-0-0-0-0-0-0-0-0-0-0-0-0-0-0-|--0----------------|


           |-3-| |-3-| |-3-| |-3-| |-3-| |-3-| |-3-| |-3-|
  H        T T T T T T T T T T T T T T T T T T T T T T T T
-----------------------------------------------------------|
--L--------------------------------------------------------|
-----------------------------------------------------------|
-----------------------------------------------------------|
--L--------------------------------------------------------|
--L--------0-0-0-0-0-0-0-0-0-0-0-0-0-0-0-0-0-0-0-0-0-0-0-0-|


  H         H            H        H           E  Q    S S E  E  E  E
---------------------|---------------------|--------------------------|
---------------------|---------------------|--------------------------|
---------------------|------------9--------|--------------------------|
--8---------9--------|--10--------9--------|--0-----------3--------0--|
--8--------10--------|--10--------7--------|--0-----------3--------0--|
--8---------9--------|--10-----------------|--0-------0-0-3--0-----0--|


  E  S S E  S E.  S S Q       E  Q    S S E  E  E  E
---------------------------|--------------------------|
---------------------------|--------------------------|
---------------------------|--------------------------|
---------3------------3----|--0-----------3--------0--|
---------3------------3----|--0-----------3--------0--|
-----0-0-3--0-----0-0-3----|--0-------0-0-3--0-----0--|


  E  S S E  S E.  S S Q       E  Q    S S E  E  E  E
---------------------------|--------------------------|
---------------------------|--------------------------|
---------------------------|--------------------------|
---------3------------3----|--0-----------3--------0--|
---------3------------3----|--0-----------3--------0--|
-----0-0-3--0-----0-0-3----|--0-------0-0-3--0-----0--|


  E  S S E  S E.  S S Q       Q    Q     Q     Q        Q     Q     Q     Q
---------------------------|------------------------|--------------------------|
---------------------------|------------------------|--------------------------|
---------------------------|------------------------|--------------------------|
---------3------------3----|--8----8-----9-----9----|--10----10----11----11----|
---------3------------3----|--8----8----10----10----|--10----10----12----12----|
-----0-0-3--0-----0-0-3----|--8----8-----9-----9----|--10----10----11----11----|


  E  Q    S S E  E  E  E     E  S S E  S E.  S S Q
--------------------------|---------------------------|
--------------------------|---------------------------|
--------------------------|---------------------------|
--0-----------3--------0--|---------3------------3----|
--0-----------3--------0--|---------3------------3----|
--0-------0-0-3--0-----0--|-----0-0-3--0-----0-0-3----|


  E  Q    S S E  E  E  E     E  S S E  S E.  S S Q
--------------------------|---------------------------|
--------------------------|---------------------------|
--------------------------|---------------------------|
--0-----------3--------0--|---------3------------3----|
--0-----------3--------0--|---------3------------3----|
--0-------0-0-3--0-----0--|-----0-0-3--0-----0-0-3----|


  E  Q    S S E  E  E  E     E  S S E  S E.  S S Q       Q    Q     Q     Q
--------------------------|---------------------------|------------------------|
--------------------------|---------------------------|------------------------|
--------------------------|---------------------------|------------------------|
--0-----------3--------0--|---------3------------3----|--8----8-----9-----9----|
--0-----------3--------0--|---------3------------3----|--8----8----10----10----|
--0-------0-0-3--0-----0--|-----0-0-3--0-----0-0-3----|--8----8-----9-----9----|


   Q     Q     Q     Q        H.           Q        H        H
--------------------------|---------------------|---------------------|
--------------------------|---------------------|---------------------|
--------------------------|--/5------------5----|--/4--------3--------|
--10----10----11----11----|---------------------|---------------------|
--10----10----12----12----|---------------------|---------------------|
--10----10----11----11----|---------------------|---------------------|


  E  E  E  E  H           W
-----------------------|-------------------|-------|-------|-------|-------|
-----------------------|-------------------|-------|-------|-------|-------|
--2--------------------|-------------------|-------|-------|-------|-------|
-----3--0--3--L--------|--L----------------|-------|-------|-------|-------|
-----------------------|-------------------|-------|-------|-------|-------|
-----------------------|-------------------|-------|-------|-------|-------|


                                  Q    Q    Q    Q       Q    Q    E  Q.
-------|-------|-------|-------|----------------------|-----------------------|
-------|-------|-------|-------|----------------------|-----------------------|
-------|-------|-------|-------|--3----3----3----3----|--3----3----3----------|
-------|-------|-------|-------|--3----3----3----3----|--3----3----3----------|
-------|-------|-------|-------|--1----1----1----1----|--1----1----1----------|
-------|-------|-------|-------|----------------------|---------------3~------|


   H.           Q        H        H           E  E  E  E  H
---------------------|---------------------|-----------------------|
---------------------|---------------------|-----------------------|
--/5------------5----|--/4--------3--------|--2--------------------|
---------------------|---------------------|-----3--0--3--L--------|
---------------------|---------------------|-----------------------|
---------------------|---------------------|-----------------------|


  W
-------------------|-------|-------|-------|-------|-------|-------|-------|
-------------------|-------|-------|-------|-------|-------|-------|-------|
-------------------|-------|-------|-------|-------|-------|-------|-------|
--L----------------|-------|-------|-------|-------|-------|-------|-------|
-------------------|-------|-------|-------|-------|-------|-------|-------|
-------------------|-------|-------|-------|-------|-------|-------|-------|


-------|-------|-------|-------|-------|-------|-------|-------|-------|-------|
-------|-------|-------|-------|-------|-------|-------|-------|-------|-------|
-------|-------|-------|-------|-------|-------|-------|-------|-------|-------|
-------|-------|-------|-------|-------|-------|-------|-------|-------|-------|
-------|-------|-------|-------|-------|-------|-------|-------|-------|-------|
-------|-------|-------|-------|-------|-------|-------|-------|-------|-------|


-------|-------|-------|-------|-------|-------|-------|-------|-------|-------|
-------|-------|-------|-------|-------|-------|-------|-------|-------|-------|
-------|-------|-------|-------|-------|-------|-------|-------|-------|-------|
-------|-------|-------|-------|-------|-------|-------|-------|-------|-------|
-------|-------|-------|-------|-------|-------|-------|-------|-------|-------|
-------|-------|-------|-------|-------|-------|-------|-------|-------|-------|


-------|-------|-------|-------|-------|-------|-------|-------|-------|-------|
-------|-------|-------|-------|-------|-------|-------|-------|-------|-------|
-------|-------|-------|-------|-------|-------|-------|-------|-------|-------|
-------|-------|-------|-------|-------|-------|-------|-------|-------|-------|
-------|-------|-------|-------|-------|-------|-------|-------|-------|-------|
-------|-------|-------|-------|-------|-------|-------|-------|-------|-------|


-------||
-------||
-------||
-------||
-------||
-------||


Duration Legend
---------------
W - whole
H - half
Q - quarter
E - 8th
S - 16th
T - 32nd
X - 64th
. - note dotted
|-n-|  - n-tuplets


Tablature Legend
----------------
L - tied note
x - dead note
g - grace note
(n) - ghost note
> - accentuded note
NH - natural harmonic
AH - artificial harmonic
TH - tapped harmonic
SH - semi harmonic
PH - pitch harmonic
h - hammer on
p - pull off
b - bend
br - bendRelease
pb - preBend
pbr - preBendRelease
brb - bendReleaseBend
\n/ - tremolo bar dip
\n - tremolo bar dive
-/n - tremolo bar Release up
/n\ - tremolo bar inverted dip
/n - tremolo bar return
-\n - tremolo bar Release down
S - shift slide
s - legato slide
/ -  slide into from below or out of upwards
\ -  slide into from above or out of downwards
~ - vibrato
W - wide vibrato
tr - trill
TP - tremolo picking
T - tapping
S - slap
P - pop
< - fade in
^ - brush up
v - brush down

            
            
Suggest correction
Creating personal tab
Creating personal tab
You can edit any tab online and save it as your Personal.

You can edit, replace or remove any tab part or add personal notes – all changes will be seen only by you.

Personal tabs can be accessed anytime from any device, even offline.
Learn more »
comments
print report bad tab
5 comments total. Showing first comments. show 1 bad comment
0 reply
ZachyV 20 May 21, 2010 04:12 PM

nice organization dude

+1 reply
californiacane 104 May 23, 2010 05:31 PM

Im pretty sure the rev put down all the new tracks before he died so you won't have to miss his drumming. Nice tab though...

guest
You may want to rate the tab now too:
select rating
Wanna post a correction for this tab? Suggest correction