Oops, an error
Loading. Please wait.

Save Me bass

version 1
version 1
25,053 views 15 this week
4 commentsread comments
1 2 3 4 5
x 23
add to favorites
×
Save as Personal and add changes to this tab that will be seen only by you. Learn more ›
×
You can save this tab as Personal to edit and correct it or add notes. All changes will be seen only by you. Learn more »
launch autoscroll
font size
0
reset
guitar tuner
backing track
0:00
0:00
edit
Autoscroll
slow
fast
+/-
esc
set tempo
stop
Avenged Sevenfold - Save Me 
Bassist: Johnny Christ
Tabbed By: Josh

Im pretty sure this is the only bass tab of this song, Enjoy.


Bass intro (0:00-0:15)
G|------------------------------------|
D|------------------------------------|
A|------------------------------------|
D|-----0--00000--00000--0000000000000-|

 (0:16-0:44) 
G|----------------------------------------------------------------|
D|----------------------------------------------------------------|
A|----------------------------------------------------------------|
D|---0-------------7-----------2-------------9--------------------|

G|----------------------------------------------------------------|
D|----------------------------------------------------------------|
A|----5------------5---------------0-----------0------------------|
D|----------------------------------------------------------------|

"Skull"
(0:45-1:08)
G|-------------------------------------------------------------------------|
D|-------------------------------------------------------------------------|
A|-------------------------------------------------------------------------|
D|-----0--00000--00000--0000000000000--00000--00000--0000000000000---------|

(1:09-1:22)
G|------------------------------------------------------------------|
D|------------------------------------------------------------------|
A|------------------------------------------------------------------| X4
D|---0---0-0-0-0----0---0-0-0-0----6---6-6-6-6----11---11-11-11-11--|


(1:23-1:38)
G|-----------------------------------------------------------|
D|-----------------------------------------------------------|
A|-----------------------------------------------------------|
D|-0---0-0-0-0----3---3-3-3-3-----5---5-5-5-5----2---2-2-2-2-|

G|-----------------------------------------------------|
D|-----------------------------------------------------|
A|-----------------------------------------------------|  X2
D|12---12-12-12-12----8-8-7----5---5-5-5-5----6-6-7-7--|


(1:39-1:53)
G|---------------------------|
D|---------------------------|
A|---------------------------|  X4
D|0~0000-2~2222-3~3333-5~5555|

"They all know."
(1:54-2:01)
G|------------------------------------|
D|------------------------------------|
A|------------------------------------| 
D|-----0--00000--00000--0000000000000-|

G|------------------------|
D|------------------------|
A|------------------------| 
D|-----0--00000--00000--0-|

"Sorry did..."
(2:02-2:31)
G|----------------------------------------------------------------------------------|
D|----------------------------------------------------------------------------------|
A|-5--5-5-5--5--5-5-5--5--5-5-5--5--5-5-5-------------------------------------------|
D|------------------------------------------7--7-7-7--7--7-7-7--7--7-7-7--7--7-7-7--|

G|---------------------------------------------------------------------------------|
D|---------------------------------------------------------------------------------|
A|-----------------------------------------2--2-2-2--2--2-2-2--2--2-2-2--2--2-2-2--|
D|-2--2-2-2--2--2-2-2--2--2-2-2--2--2-2-2------------------------------------------|

G|---------------------------------------------------------------------------------|
D|---------------------------------------------------------------------------------|
A|-5--5-5-5--5--5-5-5--5--5-5-5--5--5-5-5--5--5-5-5--5--5-5-5--5--5-5-5--5--5-5-5--|
D|---------------------------------------------------------------------------------|

G|---------------------------------------------------------------------------------|
D|---------------------------------------------------------------------------------|
A|-0--0-0-0--0--0-0-0--0--0-0-0--0--0-0-0--0--0-0-0--0--0-0-0--0--0-0-0--0--0-0-0--|
D|---------------------------------------------------------------------------------|

"Is it something..."
(2:32-2:46)

G|-------------------------------------------------------------|
D|-------------------------------------------------------------|
A|-------------------------------------------------------------| X2
D|---0--0-0-0-0---0--0-0-0-0----6--6-6-6-6----11--11-11-11-11--| 


G|------------------------------------------------------|
D|------------------------------------------------------|
A|------------------------------------------------------|
D|--0-0-12-0-11-0-8-0-11-0-8~----0-0-8-0-7-0-6-0-7-0-7--|


G|----------------------------------------------|
D|----------------------------------------------|
A|----------------------------------------------|
D|--0-0-12-0-11-0-8-0-11-0-8~----8-8-8---7-7-7--|

"Save me..."
(2:47-3:17)

G|-----------------------------------------------|
D|-----------------------------------------------|
A|-----------------------------------------------|
D|3-3-3-3-3-3-3-3-3-3-3-3-7-7-7-7-7-7-7-7-7-7-7-7|

G|-----------------------------------------------|
D|-----------------------------------------------|
A|5-5-5-5-5-5-5-5-5-5-5-5-3-3-3-3-3-3-3-3-3-3-3-3|  X2
D|-----------------------------------------------|

(3:18-3:24)
G|------------------------------------|
D|------------------------------------|
A|------------------------------------| X2
D|-----0--00000--00000--0000000000000-|

"Ever sinse..."
(3:25-3:54)
G|----------------------------------------------------------------------------------|
D|----------------------------------------------------------------------------------|
A|-5--5-5-5--5--5-5-5--5--5-5-5--5--5-5-5-------------------------------------------|
D|------------------------------------------7--7-7-7--7--7-7-7--7--7-7-7--7--7-7-7--|

G|---------------------------------------------------------------------------------|
D|---------------------------------------------------------------------------------|
A|-----------------------------------------2--2-2-2--2--2-2-2--2--2-2-2--2--2-2-2--|
D|-2--2-2-2--2--2-2-2--2--2-2-2--2--2-2-2------------------------------------------|

G|---------------------------------------------------------------------------------|
D|---------------------------------------------------------------------------------|
A|-5--5-5-5--5--5-5-5--5--5-5-5--5--5-5-5--5--5-5-5--5--5-5-5--5--5-5-5--5--5-5-5--|
D|---------------------------------------------------------------------------------|

G|---------------------------------------------------------------------------------|
D|---------------------------------------------------------------------------------|
A|-0--0-0-0--0--0-0-0--0--0-0-0--0--0-0-0--0--0-0-0--0--0-0-0--0--0-0-0--0--0-0-0--|
D|---------------------------------------------------------------------------------|

"Is it something we did..."
(3:55-4:10)
G|-------------------------------------------------------------|
D|-------------------------------------------------------------|
A|-------------------------------------------------------------| X2
D|---0--0-0-0-0---0--0-0-0-0----6--6-6-6-6----11--11-11-11-11--| 


G|------------------------------------------------------|
D|------------------------------------------------------|
A|------------------------------------------------------|
D|--0-0-12-0-11-0-8-0-11-0-8~----0-0-8-0-7-0-6-0-7-0-7--|


G|----------------------------------------------|
D|----------------------------------------------|
A|----------------------------------------------|
D|--0-0-12-0-11-0-8-0-11-0-8~----8-8-8---7-7-7--|

"Save me..."
(4:11-4:40)

G|-----------------------------------------------|
D|-----------------------------------------------|
A|-----------------------------------------------|
D|3-3-3-3-3-3-3-3-3-3-3-3-7-7-7-7-7-7-7-7-7-7-7-7|

G|-----------------------------------------------|
D|-----------------------------------------------|
A|5-5-5-5-5-5-5-5-5-5-5-5-3-3-3-3-3-3-3-3-3-3-3-3|  X2
D|-----------------------------------------------|

"If you hear me..."
(4:41-4:49)
G|------------------------------------------------------|
D|------------------------------------------------------|
A|1-1-1-1-1-1-1-1-1-1-1-1-1-1-1-1-1-1-1-1-1-1-1-1-1-----|  
D|--------------------------------------------------0~~~|

(4:50-5:19)
G|----------------------------------------------------|
D|----------------------------------------------------|
A|----------------------------------------------------|
D|0---0-0-0-0--0---0-0-0-0--0---0-0-0-0--0---0-0-0-0--|

G|----------------------------------------------------|
D|----------------------------------------------------|
A|----------------------------------------------------|
D|8--8-8-8-8---8---8-8-8-8--8---8-8-8-8--8---8-8-8-8--|

G|----------------------------------------------------|
D|----------------------------------------------------|
A|----------------------------------------------------|
D|0~~~~~~~~~~~~~~~~~~~~~~~~~~~~-8~~~~~~~~~~~~~~~~~~~~~|

G|----------------------------------------------------|
D|----------------------------------------------------|
A|----------------------------------------------------|
D|0000000000000000000000000000000000000000000000000000|

G|----------------------------------------------------|
D|----------------------------------------------------|
A|----------------------------------------------------|
D|8888888888888888888888888888888888888888888888888888

*SOLO*
(5:20-5:47)
G|--------------------------------------------------------------------|
D|--------------------------------------------------------------------|
A|--------------------------------------------------------------------|
D|0-0-0-0-2-2-3-3-5-5-5-5-3-3-2-2-12-12-12-12-8-8-7-7-5-5-5-5-3-3-2-2-|

G|--------------------------------------------------------------------|
D|--------------------------------------------------------------------|
A|-5-5-5-5-5-5-5-5-5-5-5-5-5-5-5-5--4-4-4-4-4-4-4-4-4-4-4-4-4-4-4-4---|
D|--------------------------------------------------------------------|

"Aaaaaa..."
G|----------------------------------------------------------------------|
D|----------------------------------------------------------------------|
A|-3-3-3-3-3-3-3-3-3-3-3-3-3-3-3-3----2-2-2-2-2-2-2-2-2-2-2-2-2-2-2-2---|
D|----------------------------------------------------------------------|

G|-------------------------------------------------|
D|-------------------------------------------------|
A|-1-1-1-1-1-1-1-1-1-1-1-1-1-1-1-1-----------------|
D|---------------------------------0-0-0-0-3-3-2-2-|

G|---------------|
D|---------------|
A|---------------| X4
D|-0-0--0-0--0-0-|

(5:48-6:07)
G|--------------------------------------------------|
D|--------------------------------------------------|
A|--------------------------------------------------|
D|-0-0--0-0--0-0--0-0--0-0--5-5--5-5--5-5--5-5--5-5-|

G|-------------------------------------------------------|
D|-------------------------------------------------------|
A|-------------------------------------------------------|
D|-3-3--3-3--3-7--7-7--7-7--0-0--0-0--0-0-5h6p5-0-6-7-0-3|

G|--------------------------------------------------|
D|--------------------------------------------------|
A|--------------------------------------------------|
D|-0-0--0-0--0-0--0-0--0-0--5-5--5-5--5-5--5-5--5-5-|


G|--------------------------------------------------|
D|--------------------------------------------------|
A|--------------------------------------------------|
D|-3-3--3-3--3-7--7-7--7-7-0---7---8---5---7-5-3---0|

(6:08-6:37) *soflty*
G|--------------------------|
D|-0------2-----3-----5-----|
A|--------------------------| X8
D|--------------------------|

"No pulse inside of me...:
(6:38-6:56)
G|-----------------------|
D|-----9-7-------10-12-10|
A|-7-7-----7-8-8---------| X3
D|-----------------------|


G|-------------------------------|
D|-------12-------------14-------|
A|-10-10----10-10-12-12----12-12-|
D|-------------------------------|

G|-----------------------|
D|-----------------------|
A|5-5-5-5-5-5-4-4-4-4-4-4|
D|-----------------------|

"He may be out of his mind"
(6:57-7:27)
G|------------------------|
D|------------------------|
A|5-----1-----------3--4--| X4
D|------------5-----------|

(7:28-7:34)
G|------------------------------------|
D|------------------------------------|
A|------------------------------------|
D|-----0--00000--00000--0000000000000-|

G|------------------------------------|
D|------------------------------------|
A|------------------------------------|
D|-----0--00000--0000-----------------|

"If you'd only open your mind..."
(7:35-8:05)
G|----------------------------------------------------|
D|----------------------------------------------------|
A|----------------------------------------------------| X2
D|-0-0-0-0-0-0-8-8-8-8-8-8-5-5-5-5-5-5-10-10-10-7-7-7-|


G|-------------------------------------------------|
D|-------------------------------------------------|
A|-------------1-1-1-1-1-1-2-2-2-2-2-2-3-3-3-4-4-4-|
D|-0-0-0-0-0-0-------------------------------------|

"Save me.."
(8:06-8:35)
G|-----------------------------------------------|
D|-----------------------------------------------|
A|-----------------------------------------------|
D|3-3-3-3-3-3-3-3-3-3-3-3-7-7-7-7-7-7-7-7-7-7-7-7|

G|-----------------------------------------------|
D|-----------------------------------------------|
A|5-5-5-5-5-5-5-5-5-5-5-5-3-3-3-3-3-3-3-3-3-3-3-3|  X2
D|-----------------------------------------------|

"If you hear me..."
(8:36-8:39)
G|------------------------------------------------------|
D|------------------------------------------------------|
A|1-1-1-1-1-1-1-1-1-1-1-1-1-1-1-1-1-1-1-1-1-1-1-1-1-----|  
D|--------------------------------------------------0~~~|

(8:40-9:09)
Same rhythm as intro but with these notes:
G|----------------------------------------------------------------|
D|----------------------------------------------------------------|
A|----------------------------------------------------------------|
D|---0-------------7-----------2-------------9--------------------|

G|----------------------------------------------------------------|
D|----------------------------------------------------------------|
A|----5------------5---------------0-----------0------------------|
D|----------------------------------------------------------------|

(9:10-9:43)
G|-------------------------------------------|
D|-------------------------------------------|
A|-------------------------------------------|
D|-3-3-3-3--3-3-3-3--0-0-0-0--0-0-0-0--7-----|

"Tonight we all die young..."
(9:44-10:44)
G|-------------------------------|
D|-------------------------------| 
A|-1-1-1---3-3-3---5-5-5---5-5-5-| X3
D|-------------------------------|

G|------------------------567777-567777-|
D|--------------------------------------| 
A|-1-1-1---3-3-3---5-5-5----------------|
D|--------------------------------------|

G|-------------------------------|
D|-------------------------------| 
A|-1-1-1---3-3-3---5-5-5---5-5-5-| 
D|-------------------------------|

G|-------------------------------|
D|-------------------------------| 
A|-1-1-1---3-3-3---5-------------| 
D|-------------------------------|

(10-:45-10:56)
G|------------------------------------|
D|------------------------------------|
A|------------------------------------|
D|-----0--00000--00000--0000000000000-|

There you go :) Enjoy an amazing song!

            
            
Suggest correction
Creating personal tab
Creating personal tab
You can edit any tab online and save it as your Personal.

You can edit, replace or remove any tab part or add personal notes – all changes will be seen only by you.

Personal tabs can be accessed anytime from any device, even offline.
Learn more »
comments
print report bad tab
4 comments total. Showing first comments.
0 reply
phasesevenfold 213 Mar 22, 2011 10:40 AM

It seems right, just the 1:09-1:22 progression is 0-0-6-7 instead of 0-0-6-11. Otherwise great tab, good work.

-2 reply
wesselrockt 194 Nov 16, 2011 09:02 AM

are you shure that is is in drop D? it sounds like drop Db

+1 reply
SCgm666 107 Nov 25, 2012 04:03 PM

Intro doesn't have the polyrhythms.

|Bass intro (0:00-0:15)
|G|------------------------------------------|----
|D|------------------------------------------|----
|A|------------------------------------------|----
|D|-----0----0-0-0-----0-0-0-----0-0-0-0-0-0-|(0)-

guest
You may want to rate the tab now too:
select rating
Wanna post a correction for this tab? Suggest correction