Oops, an error
Loading. Please wait.

Save Me bass

version 2
version 2
1,542 views 1 this week
no commentswrite comment
1 2 3 4 5
x 7
add to favorites
×
Save as Personal and add changes to this tab that will be seen only by you. Learn more ›
×
You can save this tab as Personal to edit and correct it or add notes. All changes will be seen only by you. Learn more »
launch autoscroll
font size
0
reset
guitar tuner
backing track
0:00
0:00
edit
Autoscroll
slow
fast
+/-
esc
set tempo
stop
G|--------------------------------------------------------------|
D|--------------------------------------------------------------|
A|--------------------------------------------------------------|
D|-0-000-000--0000000-000-000--0000000-000-000--0000000-000-000-|

0:15
G|----------------------------------------------------|
D|----------------------------------------------------| 
A|--------------------------0-00000-00000--0000000000-|
D|-0-00000-00000--0000000000--------------------------|

G|----------------------------------------------------|
D|----------------------------------------------------|
A|-7-77777-77777--77777777772-22222-22222--2222222222-|
D|----------------------------------------------------|

0:30
G|-----------------------------|-----------------------------|
D|o---------------------------o|o---------------------------o|
A|o---------------------------o|o-0-00000-00000--0000000000-o|
D|--0-00000-00000--0000000000--|-----------------------------|

0:45 x6
G|-----------------------------|
D|o---------------------------o| 
A|o---------------------------o|
D|--0-00000-00000--0000000000--|

1:07
G|----------------------------------------------|
D|o---------------------------------------------| 
A|o---------------------------------------------|
D|--0--0-0-0-0-0--0-0-0-0-6--6-6-6-6-7--7-7-7-7-|

G|-----------------------------------------|
D|----------------------------------------o| 
A|----------------------------------------o|
D|-0--0-0-0-0-0--0-0-0-0-6--6--6--7--7--7--|

1:23
G|-------------------------------------------------|
D|o-----------------------------------------------o| 
A|o-----------------------------------------------o|
D|--0--0-0-3--3-3-5--5-5-2--2-2/12--12-12-8-75-67--|

1:38 x4
G|-----------------------------------------------|
D|o---------------------------------------------o| 
A|o---------------------------------------------o|
D|--0--0-0-0-0-2--2-2-2-2-3--3-3-3-3-5--5-5-5-5--|

1:53
G|---------------------------------------|
D|---------------------------------------| 
A|---------------------------------------|
D|-0-00000-00000--0000000000-00000-00000-|

2:00
G|----------------------------------------------------------------|
D|----------------------------------------------------------------|
A|-5--5-5--5--555--5--5-5--5--555--0--0-0--0--000--0--0-0--0--000-|
D|----------------------------------------------------------------|

G|----------------------------------------------------------------|
D|----------------------------------------------------------------|
A|-7--7-7--7--777--7--7-7--7--777--2--2-2--2--222--2--2-2--2--222-|
D|----------------------------------------------------------------|

G|----------------------------------------------------------------|
D|----------------------------------------------------------------|
A|---------------------------------5--555--5--555--5--555--5--555-|
D|-0--000--0--000--0--000--0--000---------------------------------|

G|----------------------------------------------------------------|
D|----------------------------------------------------------------|
A|-0--000--0--000--0--000--0--000--0--000--0--000--0--000--0--0-3-|
D|----------------------------------------------------------------|

2:31
G|-----------------------------------------------|
D|o---------------------------------------------o| 
A|o---------------------------------------------o|
D|--0--0-0-0-0-0--0-0-0-0-6--6-6-6-6-7--7-7-7-7--|

2:38
G|--------------------------------------------------|
D|--------------------------------------------------|
A|---5-4-1-4-1-----------------5-4-1-4-1--1111-0000-|
D|-00-0-0-0-0---00807060707--00-0-0-0-0-------------|

2:46
G|--------------------------------------------|
D|---------------------------------7-777------|
A|----------------------------7-777-----7-7-7-|
D|-3-3333-3333-333353-33/7-777----------------|

G|---------------------------------------------------|
D|---------------------------------------------------|
A|-5-5555-5555-5555457543-3333-3333-3/12-10-8-7-8-10-|
D|---------------------------------------------------|

3:02
G|----------------------------------------------|
D|----------------------------------7-7-7-------|
A|----------------------------7-7-7-------7-7-7-|
D|-3-3333-3333-3333-5-3-7-7-7-------------------|

G|----------------------------------------------|
D|----------------------------------------------|
A|-5-5555-5555-5555457543-3333-3333-3--3--3-3-3-|
D|----------------------------------------------|

3:16
G|------------------------------------|
D|------------------------------------| 
A|------------------------------------|
D|-00--00--00--0000000000-00--00--00--|

3:24
G|----------------------------------------------------------------|
D|----------------------------------------------------------------|
A|-5--5-5--5--555--5--5-5--5--555--0--0-0--0--000--0--0-0--0--000-|
D|----------------------------------------------------------------|

G|----------------------------------------------------------------|
D|----------------------------------------------------------------|
A|-7--7-7--7--777--7--7-7--7--777--2--2-2--2--222--2--2-2--2--222-|
D|----------------------------------------------------------------|

G|----------------------------------------------------------------|
D|----------------------------------------------------------------|
A|---------------------------------5--5-5--5--555--5--5-5--5--555-|
D|-0--0-0--0--000--0--0-0--0--000---------------------------------|

G|----------------------------------------------------------------|
D|----------------------------------------------------------------|
A|-0--0-0--0--000--0--0-0--0--000--0--0-0--0--000--0--000--0--0-3-|
D|----------------------------------------------------------------|

3:55
G|-----------------------------------------------|
D|o---------------------------------------------o| 
A|o---------------------------------------------o|
D|--0--0-0-0-0-0--0-0-0-0-6--6-6-6-6-7--7-7-7-7--|

4:02
G|--------------------------------------------------|
D|--------------------------------------------------|
A|---5-4-1-4-1-----------------5-4-1-4-1--1111-0000-|
D|-00-0-0-0-0---00807060707--00-0-0-0-0-------------|

4:10
G|--------------------------------------------|
D|---------------------------------7-777------|
A|----------------------------7-777-----7-7-7-|
D|-3-3333-3333-333353-33/7-777----------------|

G|---------------------------------------------------|
D|---------------------------------------------------|
A|-5-5555-5555-5555457543-3333-3333-3/12-10-8-7-8-10-|
D|---------------------------------------------------|

4:25
G|----------------------------------------------|
D|----------------------------------7-7-7-------|
A|----------------------------7-7-7-------7-7-7-|
D|-3-3333-3333-3333-5-3-7-7-7-------------------|

G|--------------------------------------------------------------------------------|
D|--------------------------------------------------------------------------------|
A|-5-5555-5555-5555457543-3333-3333-3/12-10-8-7-5-3-1-1111-1111-1/12-10-8-7-5-3-5-|
D|--------------------------------------------------------------------------------|

4:48
G|-----------------------------------------------------------------------------|
D|-----------------------------------------------------------------------------| 
A|---------------------------------1-1-11111-1-11111-1-11111-1-1111------------|
D|-0-0-00000-0-00000-0-00000-0-0000--------------------------------0---------8-|

5:08
G|-----------------------------------------------------------|
D|-----------------------------------------------------------| 
A|-----------------------------------------------------------|
D|-8\0000000-0-0-0-0000000-0-0-0-0000000-0-0-0-0000000-0-0-0-|

G|---------------------------------------------------------|
D|---------------------------------------------------------|
A|-1111111-1-1-1-1111111-1-1-1-1111111-1-1-1-1111111-1-1-1-|
D|---------------------------------------------------------|

5:19
G|-----------------------------------------------------------------|
D|-----------------------------------------------------------------|
A|-----------------------------------------------------------------|
D|-0-0-0-0-0-0-0-0-2-2-2-2-3-3-3-3-5-5-5-5-5-5-5-5-3-3-3-3-2-2-2-2-|

G|----------------------------------------------------------|
D|----------------------------------------------------------|
A|---------5-5-5-5-1-1-0-0----------------------------------|
D|-0-0-0-0-----------------5-5-5-5-5-5-5-5-3---3---2--2--2--|

G|------------------------------------------------------|
D|------------------------------------------------------| 
A|-5(x16)---4(x16)---3(x16)---2(x16)---1(x16)---0-------|
D|--------------------------------------------------3-2-|

5:37
G|----------------------------------------------------|
D|----------------------------------------------------| 
A|----------------------------------------------------|
D|-00-00-00----00-00-00----00-00-00----00-00-03203520-|

5:46
G|---------------------------------------------------------------------|
D|---------------------------------------------------------------------| 
A|-------------------------------------------0-00-00---------------053-|
D|-000-00-00-00-00---55-55-55-55-55---33-33-3----------00-00-056506----|

G|------------------------------------------------------------------|
D|------------------------------------------------------------------| 
A|-------------------------------------------0-00-00--5-0-1---------|
D|-000-00-00-00-00---55-55-55-55-55---33-33-3---------------5-57532-|

6:07                    x7
G|---------------------|------------------------|
D|---------------------|o----------------------o|
A|------7----8----10---|o-5----7----8----10----o|
D|-0-------------------|------------------------|

6:37
G|-------------------------------------11p10--------------------------------------------|
D|----7h97--------10----7h97-------10p9---------7h97------10------12--------------------|
A|---7----7--8-7h8--8--7----7--8-8-------------7----7--8-8--8---8---1210--8-10h12-10h12-|
D|-7-------7---------7-------7---------------7-------7--------7---------7---------------|

6:52
G|---------------------------------------------|
D|---------------------------------------------|
A|-5--5--4/7--0--5--5--1--1--2--2--3--4--5--5--|
D|---------------------------------------------|

7:06
G|---------------------------------------------------------------------------|
D|----------------------78757------------------------------------------------|
A|-1--1--2--2--3--4--5-------7-1--1--2--2--3--4--5--/8-7-0-1--1--2--2--3--4--|
D|---------------------------------------------------------------------------|

7:26
G|--------------------------------------|
D|--------------------------------------| 
A|--------------------------------------|
D|-0-00000-00000-0000000000-00000-00000-|

7:34
G|-------------------------------------------------|
D|-------------------------------------------------| 
A|-------11-111------33-444------11-111------3--4--|
D|-00-000------55-555------00-000------55-555------|

7:50
G|---------------------------------------------------|
D|o-------------------------------------------------o| 
A|o-5--5--5--5--1--1--1--1--2--2--2--2--3--3--4--4--o|
D|---------------------------------------------------|

8:04
G|--------------------------------------------------------|
D|--------------------------------------------------------|
A|-8--8-8-------8--8-88-10-8-0--0-07--7-7/12--12-12\7-7-7-|
D|-------3--3-3-------------------------------------------|

G|--------------------------------------------------------|
D|--------------------------------------------------------|
A|-5--5-55--5-55--5-5457543--3-33--3-33--3/1210-87-7-8-10-|
D|--------------------------------------------------------|

8:20
G|-------------------------------------------------|
D|-------------------------------------------------|
A|-----------------------0--0-07--7-7/121212121212-|
D|-3--3-33--3-33--3-3353---------------------------|

G|--------------------------------------------------------------------------|
D|--------------------------------------------------------------------------|
A|-7-7--75--5-55--5-55--5-5457543--3-33--3-33-3/12-10-8-7-5-3-1--1-11--1-11-|
D|--------------------------------------------------------------------------|

8:39
G|----------------------------------------------------|
D|----------------------------------------------------| 
A|--------------------------0-00000-00000--0000000000-|
D|-0-00000-00000--0000000000--------------------------|

G|----------------------------------------------------|
D|----------------------------------------------------|
A|-7-77777-77777--77777777772-22222-22222--2222222222-|
D|----------------------------------------------------|

8:54
G|-----------------------------|-----------------------------|
D|o---------------------------o|o---------------------------o|
A|o---------------------------o|o-0-00000-00000--0000000000-o|
D|--0-00000-00000--0000000000--|-----------------------------|

9:09
G|-----------------------|
D|-----------------------| 
A|---------------------0-|
D|-3333-3333-0000-0000---|

9:22
G|-------------------------------|
D|-------------------------------|
A|-1----3----5----1----3----5----|
D|-------------------------------|

9:42
G|-------------------------------------------|
D|-------------------------------------------| 
A|-111--333--555--555--111--333--555--555-55-|
D|-------------------------------------------|

10:03
G|-------------------------------------------------------5h7-5h7-5h7-5h7-975--|
D|--------------------------------------------------------------------------7-|
A|-111-11--333-33--555-55--555--53-111-11--333-33--555------------------------|
D|----------------------------------------------------------------------------|

10:23
G|-----------------/775--/7-75-------------------------|
D|----------------------------7575---------------------| 
A|-111-1-333-3-555----------------878753-111-1-333-3-5-|
D|-----------------------------------------------------|

10:43
G|-------------------------------------------------|
D|-------------------------------------------------|
A|-------------------------------------------------|
D|-0-00000-00000-0000000000-00000-00000-0000000000-|

            
            
Suggest correction
Creating personal tab
Creating personal tab
You can edit any tab online and save it as your Personal.

You can edit, replace or remove any tab part or add personal notes – all changes will be seen only by you.

Personal tabs can be accessed anytime from any device, even offline.
Learn more »
comments
print report bad tab
guest
You may want to rate the tab now too:
select rating
Wanna post a correction for this tab? Suggest correction