Oops, an error
Loading. Please wait.
We have an official Scream tab made by UG professional guitarists. Check out the tab »
×
20,149 views 6 this week
3 commentsread comments
1 2 3 4 5
x 5
add to favorites
×
Save as Personal and add changes to this tab that will be seen only by you. Learn more ›
×
You can save this tab as Personal to edit and correct it or add notes. All changes will be seen only by you. Learn more »
launch autoscroll
font size
0
reset
guitar tuner
backing track
0:00
0:00
edit
Autoscroll
slow
fast
+/-
esc
set tempo
stop
Song: "Scream"
Artist: Avenged Sevenfold
Album: Avenged Sevenfold
Instrument: Bass
Tuning: Drop C
Transcription: Stephen Spencer



(0:03.5)
G-----------------------------------------------------------------------------------|
D-----------------------------------------------------------------------------------|
A-----------------------------------------------------------------------------------|
C-00-00--00-00--00-00--00-00-/10----------------------------------------------------|

G-----------------------------------------------------------------------------------|
D-----------------------------------------------------------------------------------|
A-----------------------------------------------------------------------------------|
C-00-00--00-00-4/685--00-00--00-00--------------------------------------------------|

(0:32)
G-----------------------------------------------------------------------------------|
D-----------------------------------------------------------------------------------|
A-----------------------------------------------------------------------------------|
C-343-/13-00-6/13-00-346-/13-00-6/13-00-653-/13-00-6/13-00-346----------------------|

G-----------------------------------------------------------------------------------|
D-----------------------------------------------------------------------------------|
A-----------------------------------------------------------------------------------|
C-1111111111111---------------------------------------------------------------------|

(0:48)
G-----------------------------------------------------------------------------------|
D-------------------454-------------------------------------------------------------|
A--------------54345----------------------------------------------------------------|
C-00-00--00-00----------00-00--00-00------------------------------------------------|

(1:01)
G-----------------------------------------------------------------------------------|
D-----------------------------------------------------------------------------------|
A----3------------------------------------------------------------------------------|
C-434--6/13-00-6/13-00-346-/13-00-6/13-00-653-/13-00-6/13-00-346--------------------|

G-----------------------------------------------------------------------------------|
D-----------------------------------------------------------------------------------|
A-----------------------------------------------------------------------------------|
C-1111111111110000-5555555577777777555555557777777755555555777777775555555577777777-|

(1:32)
G-----------------------------------------------------------------------------------|
D-----------------------------------------------------------------------------------|
A----56-----------------------------------------------------------------------------|
C-5-5---8-8108-0~-1~----------------------------------------------------------------|

G-----------------------------------------------------------------------------------|
D-----------------------------------------------------------------------------------|
A----56-----------------------------------------------------------------------------|
C-5-5---8-8108----5/12/0------------------------------------------------------------|

(1:47)
G-----------------------------------------------------------------------------------|
D-----------------------------------------------------------------------------------|
A-----------------------------------------------------------------------------------|
C-00-00--00-00--00-00--00-00--------------------------------------------------------|

(2:00)
G-----------------------------------------------------------------------------------|
D----323----------------------------------------------------------------------------|
A-543-------------------------------------------------------------------------------|
C--------6/13-00-6/13-00-346-/13-00-6/13-00-653-/13-00-6/13-00-346------------------|

G-----------------------------------------------------------------------------------|
D-----------------------------------------------------------------------------------|
A-----------------------------------------------------------------------------------|
C-1111111111110000-5555555577777777555555557777777755555555777777775555555577777777-|

(2:31)
G-----------------------------------------------------------------------------------|
D-----------------------------------------------------------------------------------|
A----56-----------------------------------------------------------------------------|
C-5-5--8-8108-0~-1~-----------------------------------------------------------------| 2X

SOLO
(2:46)
G-----------------------------------------------------------------------------------|
D-----------------------------------------------------------------------------------|
A-----------------------------------------------------------------------------------|
C-00-000-011-111-188-888-866-677-7--------------------------------------------------| 2x

(3:01)
G-----------------------------------------------------------------------------------|
D-----------------------------------------------------------------------------------|
A-----------------------------------------------------------------------------------|
C-00000000222222225555555566667777--------------------------------------------------| x4

(3:30)
G-----------------------------------------------------------------------------------|
D-----------------------------------------------------------------------------------|
A-----------------------------------------------------------------------------------|
C-5/13-5/13-5/13-5/13-5/13-23-/13-5/13-5/13-5/13-653--------------------------------|
(3:37)
G-----------------------------------------------------------------------------------|
D-----------------------------------------------------------------------------------|
A-----------------------------------------------------------------------------------|
C-5/13-5/13-5/13-5/13-5/13-23-/13-5/13----------------------------------------------|

G-----------------------------------------------------------------------------------|
D-----------------------------------------------------------------------------------|
A-----------------------------------------------------------------------------------|
C-1111111111111111-5555555577777777555555557777777755555555777777775555555577777777-|

(3:59)
G-----------------------------------------------------------------------------------|
D-----------------------------------------------------------------------------------|
A----56-----------------------------------------------------------------------------|
C-5-5---8-8108-0~-1~----------------------------------------------------------------|

G-----------------------------------------------------------------------------------|
D-----------------------------------------------------------------------------------|
A----56-----------------------------------------------------------------------------|
C-5-5---8-8108----5/12/0------------------------------------------------------------|

(4:14)
G-----------------------------------------------------------------------------------|
D-----------------------------------------------------------------------------------|
A-----------------------------------------------------------------------------------|
C-00-00--00-00--00-00--00-00--00-00--00-00--00-00--00-00----------------------------|


For any requests on bass tabs for Avenged Sevenfold, please e-mail me at spencer9449@yahoo.com

            
            
Suggest correction
Creating personal tab
Creating personal tab
You can edit any tab online and save it as your Personal.

You can edit, replace or remove any tab part or add personal notes – all changes will be seen only by you.

Personal tabs can be accessed anytime from any device, even offline.
Learn more »
comments
print report bad tab
3 comments total.
0 reply
hightide69 10 Apr 29, 2010 05:27 AM

sounds pretty good to me nice job!

0 reply
4stringedMetal 10 May 09, 2010 09:58 AM

c a d g? wtf
cgcf you mean?

0 reply
spencer9449 52 Jun 17, 2010 11:20 PM

Sorry, I meant D# tuning. Please forgive me.

guest
Wanna post a correction for this tab? Suggest correction