Oops, an error
Loading. Please wait.

Second Heartbeat bass

version 2
version 2
13,514 views 3 this week
5 commentsread comments
1 2 3 4 5
x 9
add to favorites
×
Save as Personal and add changes to this tab that will be seen only by you. Learn more ›
×
You can save this tab as Personal to edit and correct it or add notes. All changes will be seen only by you. Learn more »
launch autoscroll
font size
0
reset
guitar tuner
backing track
0:00
0:00
edit
Autoscroll
slow
fast
+/-
esc
set tempo
stop
-------------------------------------------------------------------------------
Second Heartbeat - Avenged Sevenfold
-------------------------------------------------------------------------------

Tabbed By :xmarienx 
e-mail:beardman44@hotmail.com

Tuning:Drop D

Intro
G|------------------------------------------------------------|
D|------------------------------------------------------------|
A|-333333333333333-3----3-1-----------3--3-5-6-5-3-1----------|
D|---------------------------6--3--5------------------6--3--5-|

G|---------------------------------------------------------------|
D|---------------------------------------------------------------|
A|-33333333333333333---------------------------------------------|
D|--------------------66666666666666--333333333333--555555555555-|

G|--------------------------------------------------------------------|
D|--------------------------------------------------------------------|
A|-33333333333333333------------------------------------------------3-|
D|--------------------66666666666666--3333333333333--555555555555-----|

G|------------------------------------|
D|------------------------------------|
A|-3333-5555-6666---------------------|
D|-----------------3333-666666-555555-|x2

G|--------------------------------|
D|--------------------------------|
A|-333-555-666--------------------|
D|--------------333-666666-555555-|

G|--------------------------------------------|
D|--------------------------------------------|
A|-3333-5555-6666----------------------666666-|
D|-----------------3333-666666-555555---------|

G|-------------------3---------------------|
D|--------6-----5-6------------6-----5-6-3-|
A|-3-5-6-----6----------3-5-6-----6--------|
D|-----------------------------------------|

G|------------------------------------------------------------------------|
D|------------------------------------------------------------------------|
A|-33333333-11111111------------33333333------------66666666------------3-|
D|--------------------66666666------------66666666------------88888888----|

G|-------------------------------------------|
D|-------------------------------------------|
A|-333333-333333-333333---------333333333333-|
D|-----------------------66-33---------------|

G|--------------------------------------------|
D|--------------------------------------------|
A|-3333333333---------3333333333333333--------|
D|-------------66-33--------------------66-33-|

G|---------------------------------------|
D|---------------------------------------|
A|-33333333-11111111------------11111111-|
D|--------------------66666666-----------|x6

G|------------------------------------------------------------|
D|------------------------------------------------------------|
A|-3333333333333333-111111111111------------11111111-33333333-|
D|--------------------------------11111111--------------------|x4

G|----------------|
D|----------------|
A|-3-6-5-1--------|
D|----------3-6-8-|

G|----------------33-33-|
D|-----------3-55-------|
A|-33-56-56-------------|
D|----------------------|x4

G|------------------------------------------------|
D|------------------------------------------------|
A|-5-56-56-55555555-5--5-56-56-55555555-8888-7777-|
D|------------------------------------------------|x2

G|-----------2-3-4-|
D|----5-3-5--------|
A|-5---------------|
D|-----------------|

G|-------------------------------------|
D|-------------------------------------|
A|-3-----------3--3-5-6-5-3-1----------|
D|----6--3--5------------------6--3--5-|

G|----------------------------------------------------|
D|----------------------------------------------------|
A|-3333333333333333-----------------------------------|
D|-------------------6666666666-3333333333-5555555555-|

G|-------------------------------------------------------|
D|-------------------------------------------------------|
A|-3333333333333333------------------------------------3-|
D|-------------------6666666666-3333333333-5555555555----|

G|------------------------------------------------------|
D|------------------------------------------------------|
A|-3333333333-1111111111------------11111111-3333333333-|
D|------------------------11111111----------------------|x2

G|---------------------------------------|
D|---------------------------------------|
A|-33333333-11111111------------11111111-|
D|--------------------66666666-----------|x4

G|--------------------------------------------------------|
D|--------------------------------------------------------|
A|-333333333333-111111111111------------11111111-33333333-|
D|----------------------------11111111--------------------|x6

G|-----------------------------------|
D|-----------------------------------|
A|-333333333333-111111111111-----1-3-|
D|----------------------------1------| 

            
            
Suggest correction
Creating personal tab
Creating personal tab
You can edit any tab online and save it as your Personal.

You can edit, replace or remove any tab part or add personal notes – all changes will be seen only by you.

Personal tabs can be accessed anytime from any device, even offline.
Learn more »
comments
print report bad tab
5 comments total. Showing first comments.
0 reply
xmarienx 115 Nov 24, 2008 12:50 PM

hey thanks for posting this and not taking all the credit

0 reply
Tomibass91 10 Feb 02, 2009 01:28 PM

was that a joke? and good tab, but there is sum major fills missing at the end of every chorus bit.

+1 reply
Rocculte 10 Feb 26, 2009 07:46 PM

like tomibass said. it's a great tab and all of it fits great into the song, but if you listen to it, johnny christ is laying down a lot of stuff at the chorus stuff

guest
Wanna post a correction for this tab? Suggest correction