Oops, an error
Loading. Please wait.
We have Chord Pro version of Seize The Day.
It's the closest thing you can get to the original song and it has interactive parts. Check out the tab »
×
5,838 views 1 this week
3 commentsread comments
1 2 3 4 5
x 7
add to favorites
×
Save as Personal and add changes to this tab that will be seen only by you. Learn more ›
×
You can save this tab as Personal to edit and correct it or add notes. All changes will be seen only by you. Learn more »
launch autoscroll
font size
0
reset
guitar tuner
backing track
0:00
0:00
edit
Autoscroll
slow
fast
+/-
esc
set tempo
stop
Author
Album: City of Evil

Tabbed By: Kaseke
Tuning: Drop D


Made this according to the bass master track, which you can find here:
http://www.youtube.com/watch?v=cy5cxgd7A78


(0:13)
G|-------------------------------------------------------------|
D|-------------------------------------------------------------|
A|-----------------3h53-33-3-3333330---------------------------|
D|-0235-55-5-555555-----------------3-33-332-22-220-00-000000--|

G|-----------------------------------------------|
D|-----------------------------------------------|
A|--------------3h53-33-3-33333330---------------|
D|-5-55-5-555555------------------3-33-3-3-3-32--|


(0:45)
G|-----------------------------|
D|-----------------------------|
A|-------------------3--3------|
D|-0-0---5--5--3-3--------032--|

G|-----------------------------|
D|-----------------------------|
A|-----------------------------|
D|-0-0---5--5--3-3---2--2------|

G|-----------------------------|
D|-----------------------------|
A|-------------------3--3------|
D|-0-0---5--5--3-3--------032--|

G|-----------------------------|
D|-----------------------------|
A|-----------------------------|
D|-0-0---5--5--3-3---2---------|


(1:12)
G|----------------------------------------------------------------|
D|----------------------------------------------------------------|
A|-----------------3h53-33-3-3333333/88--8\7--77--5-55-5-555555\1-|
D|-0235-55-5-555555-----------------------------------------------|


(1:33)
G|-----------------------------------------------------------------|
D|-----------------------------------------------------------------|
A|-------------------------3-33-3301-111-113-333-335-5-5-5-8-87775-|
D|-0-0-0--03-33-3345-555-5-----------------------------------------|


(1:47)
G|-----------------------------|
D|-----------------------------|
A|-------------------3--3------|
D|-0-0---5--5--3-3--------032--|

G|-----------------------------|
D|-----------------------------|
A|-----------------------------|
D|-0-0---5--5--3-3---2--2------|

G|-----------------------------|
D|-----------------------------|
A|-------------------3--3------|
D|-0-0---5--5--3-3--------032--|

G|-----------------------------|
D|-----------------------------|
A|-----------------------------|
D|-0-0---5--5--3-3---2---------|


(2.14)
G|----------------------------------------------------------------------|
D|----------------------------------------------------------------------|
A|-----------------3h53-33-3-333333308-88-887-77-775-55-55-5555-5\1--/17|
D|-0235-55-5-555555-----------------------------------------------------|


(2:35)
G|------------------------------------------------------------------|
D|------------------------------------------------------------------|
A|-------------------------3-33-3301-111-113-333-335-555-558887775\-|
D|-0-0-0--03-33-3345-555-55-----------------------------------------|

G|---------------------------------------------------|
D|---------------------------------------------------|
A|-------------------------3-33-3331-111-113-333-333-|
D|-0-0-0--03-33-3345-555-55--------------------------|


(2:59)
G|------------------------------------------------------------------|
D|------------------------------------------------------------------|
A|-----------------3-33-33-3333333/5-55-55-5555555\1-11-11-11131111-|
D|-3-33-33-33333332-------------------------------------------------|

G|-----------------------------------------------------------------------|
D|-----------------------------------------------------------------------|
A|---------------------3-3-333333333333/55555555555555551111111111111111-|
D|-3-3-3333333333333333--------------------------------------------------|

G|-----------------------------------------------------------------------|
D|-----------------------------------------------------------------------|
A|---------------------3333333333333333/55555553h55555551-11111111113101-|
D|-33333333333333333333--------------------------------------------------|


(3:40)
G|-------------------------222000--------------------------------|
D|-3-333-33-3335323--------------23------------------------------|
A|-----------------3-333-33--------5-55-5-55555\1-111-11-1111111-|
D|---------------------------------------------------------------|

G|--------------------------------------|
D|--------------------------------------|
A|---------------3-33-33-3333333\1--/17-|
D|-3-33-3-3333323-----------------------|


(4:08)
G|-------------------------------------------------------------------|
D|-------------------------------------------------------------------|
A|-------------------------3-33-3301-111-11/3333333/5-555-558887775\-|
D|-0-0-0--03-33-3345-555-55------------------------------------------|

G|-------------------------------------------------------------------|
D|-------------------------------------------------------------------|
A|-------------------------3-33-33/1-1-1-11/3333333/555555558887775\-|
D|-0-0-0--03-33-3345-5-5-55------------------------------------------|

(4:35)
G|-----------------------------------------------------------------|
D|-----------------------------------------------------------------|
A|-----------------------------------------------------------------|
D|-5-5-5-5-5-5-5-553-3-3-3-3-3-3-337-7-7-7-7-7-7-778-8-8-8-8-8-8-88|(x3)

G|-----------------------------------------------------------------|
D|-----------------------------------------------------------------|
A|-----------------------------------------------------------------|
D|-5-5-5-5-5-5-5-553-3-3-3-3-3-3-337-7-7-7-7-7-7-7-8-8-8-8-8-8-8-8-|

G|--------------------------------------------------------------|
D|--------------------------------------------------------------|
A|--------------------------------------------------------------|
D|-5-5--5-5-5-5-5-3-3--3-3--3-3-7-7-7-7-7-7-7-7-8-8-8-8-8-8-8-8-|

G|-----------------------------------------------------------------|
D|-5-5-5-5-5-5-5-5-3-3-3-3-3-3-3-3/7-7-7-7-7-7-7-7-8-8-8-8-8-8-8-8-|
A|-----------------------------------------------------------------|
D|-----------------------------------------------------------------|

G|----------------------------------------------------------------|
D|----------------------------------------------------------------|
A|----------------------------------------------------------------|
D|-5--5-5-5-5-5-5-3-3-3-3-3-3-3-3/7-7-7-7-7-7-7-7-8-8-8-8-8-8-8-8-|

G|---------------------------------------------------|
D|---------------------------------------------------|
A|---------------------------------------------------|
D|-5-5-5-5-5-5-5-5-3-3-3-3-3-3-3-3/7-7-7-7-7-7-7-7-8-|

            
            
Suggest correction
Creating personal tab
Creating personal tab
You can edit any tab online and save it as your Personal.

You can edit, replace or remove any tab part or add personal notes – all changes will be seen only by you.

Personal tabs can be accessed anytime from any device, even offline.
Learn more »
comments
print report bad tab
3 comments total.
0 reply
RockbassHM 10 Sep 12, 2016 11:50 AM

didn't like this contribution

0 reply
Kaseke 398 Sep 16, 2016 06:46 AM

Okay...
Why?

0 reply
RockbassHM 10 Sep 16, 2016 09:12 AM

WTF? I didn't even write that comment..
Whatever, you can ignore that, I think your tab is good

guest
You may want to rate the tab now too:
select rating
Wanna post a correction for this tab? Suggest correction