Oops, an error
Loading. Please wait.

St James bass

version 2
version 2

Whole song

Interactive

1,402 views 6 this week
no commentswrite comment
1 2 3 4 5
x 4
add to favorites
×
Save as Personal and add changes to this tab that will be seen only by you. Learn more ›
×
You can save this tab as Personal to edit and correct it or add notes. All changes will be seen only by you. Learn more »
launch autoscroll
font size
0
reset
guitar tuner
backing track
0:00
0:00
edit
Autoscroll
slow
fast
+/-
esc
set tempo
stop
Intro 0:21
G|-------------------------------------------------------------------|
D|o-----------------------------------------------------------------o|
A|o-----------------1-------------------------------0---------------o|
D|--0-------------------------------3--------------------------------|
    1 2 3 4 1 2 3 4 1 2 3 4 1 2 3 4 1 2 3 4 1 2 3 4 1 2 3 4 1 2 3 4 

0:43
G|------------------------------------------------------------------|
D|o-----------------------------------------------------------------|
A|o---------------------------------1-1-1-1-1-1-1-1-1-1-1-1-1-1-1-1-|
D|--0-0-0-0-0-0-0-0-0-0-0-0-0-0-0-0---------------------------------|
    1 + 2 + 3 + 4 + 1 + 2 + 3 + 4 + 1 + 2 + 3 + 4 + 1 + 2 + 3 + 4 +

G|------------------------------------------------------------------|
D|-----------------------------------------------------------------o|
A|---------------------------------0-0-0-0-0-0-0-0-0-0-0-0-0-0-0-0-o|
D|-3-3-3-3-3-3-3-3-3-3-3-3-3-3-3-3----------------------------------|
   1 + 2 + 3 + 4 + 1 + 2 + 3 + 4 + 1 + 2 + 3 + 4 + 1 + 2 + 3 + 4 +

Verse 1:04
G|------------------------------------------------------------------|
D|o-----------------------------------------------------------------|
A|o-5-5-5-5-5-5-5-5-5-5-5-5-5-5-5-5-1-1-1-1-1-1-1-1-1-1-1-1-1-1-1-1-|
D|------------------------------------------------------------------|
    1 + 2 + 3 + 4 + 1 + 2 + 3 + 4 + 1 + 2 + 3 + 4 + 1 + 2 + 3 + 4 +

G|------------------------------------------------------------------|
D|-----------------------------------------------------------------o|
A|---------------------------------0-0-0-0-0-0-0-0-0-0-0-0-0-0-0-0-o|
D|-3-3-3-3-3-3-3-3-3-3-3-3-3-3-3-3----------------------------------|
   1 + 2 + 3 + 4 + 1 + 2 + 3 + 4 + 1 + 2 + 3 + 4 + 1 + 2 + 3 + 4 +

Chorus 1:25
G|-----------------------------------------------------------------|
D|-----------------------------------------------------------------|
A|-1---1---1-1-1---1---1-1---1-1-1-0-1-1---1-1-1---5-5-5-3-5-3-5-7-|
D|-----------------------------------------------------------------|
   1 + 2 + 3 + 4 + 1 + 2 + 3 + 4 + 1 + 2 + 3 + 4 + 1 + 2 + 3 + 4 +

G|------------------------------------------------------------------------|
D|-----------------10-----10-----8-10-----10-----10-----10---10---7-8-7---|
A|-8-8-8-8-8-8-8-8----8-8----8-8------8-8----8-8----8-8----8----8-------8-|
D|------------------------------------------------------------------------|
   1 + 2 + 3 + 4 + 1  + 2 +  3 + 4 +  1 + 2  + 3 +  4 + 1  + 2  + 3 + 4 +

G|-----------------------------------------------------------------|
D|-----------------------------------------------------------------|
A|-1-1-1-----1-1---1-1-1-1---1-1-1-0-1-1-1-1-1-1-1-5-5-5-3-5-3-5-7-|
D|-----------------------------------------------------------------|
   1 + 2 + 3 + 4 + 1 + 2 + 3 + 4 + 1 + 2 + 3 + 4 + 1 + 2 + 3 + 4 +

G|------------------------------------------------------------------------|
D|-----------------10-8---10-8---8-10-----10-----10-----------------------|
A|-8-8-8-8-8-8-8-8------8------8------8-8----8-8----8-8-8----7------5-7-8-|
D|----------------------------------------------------------------8-------|
   1 + 2 + 3 + 4 + 1  + 2 +  3 + 4 +  1 + 2  + 3 +  4 + 1  + 2  + 3 + 4 +

Interlude 1:47
G|-----------------------------------------------------------------|
D|-----------------------------------------------------------------|
A|---------------------------------1-1-1-1-1-1-1-1-1-1-1-1-1-1-1-1-|
D|-0-0-0-0-0-0-0-0-0-0-0-0-0-0-0-0---------------------------------|
   1 + 2 + 3 + 4 + 1 + 2 + 3 + 4 + 1 + 2 + 3 + 4 + 1 + 2 + 3 + 4 +

G|-----------------------------------------------------------------|
D|-----------------------------------------------------------------|
A|---------------------------------0-0-0-0-0-0-0-0-0-0-0-0-0-0-0-0-|
D|-3-3-3-3-3-3-3-3-3-3-3-3-3-3-3-3---------------------------------|
   1 + 2 + 3 + 4 + 1 + 2 + 3 + 4 + 1 + 2 + 3 + 4 + 1 + 2 + 3 + 4 +

Verse 1:58
G|------------------------------------------------------------------|
D|o-----------------------------------------------------------------|
A|o-5-5-5-5-5-5-5-5-5-5-5-5-5-5-5-5-1-1-1-1-1-1-1-1-1-1-1-1-1-1-1-1-|
D|------------------------------------------------------------------|
    1 + 2 + 3 + 4 + 1 + 2 + 3 + 4 + 1 + 2 + 3 + 4 + 1 + 2 + 3 + 4 +

G|------------------------------------------------------------------|
D|-----------------------------------------------------------------o|
A|---------------------------------0-0-0-0-0-0-0-0-0-0-0-0-0-0-0-0-o|
D|-3-3-3-3-3-3-3-3-3-3-3-3-3-3-3-3----------------------------------|
   1 + 2 + 3 + 4 + 1 + 2 + 3 + 4 + 1 + 2 + 3 + 4 + 1 + 2 + 3 + 4 +

Chorus 2:19
G|-----------------------------------------------------------------|
D|-----------------------------------------------------------------|
A|-1---1-----1-1-1-1---1-1---1-1-1-1---1---1-1-1---5-5-5-3-5-3-5-7-|
D|-----------------------------------------------------------------|
   1 + 2 + 3 + 4 + 1 + 2 + 3 + 4 + 1 + 2 + 3 + 4 + 1 + 2 + 3 + 4 +

G|------------------------------------------------------------------------|
D|-----------------10-----10-----8-10-----10-----10-----10---10-8-7-8-7---|
A|-8-8-8-8-8-8-8-8----8-8----8-8------8-8----8-8----8-8----8------------8-|
D|------------------------------------------------------------------------|
   1 + 2 + 3 + 4 + 1  + 2 +  3 + 4 +  1 + 2  + 3 +  4 + 1  + 2 +  3 + 4 +

G|-----------------------------------------------------------------|
D|-------------------------------------------------------7---8-7-5-|
A|-1---1-----1-1---1-1-1-1---1-1-0-5-5-5-5-5-5-5-5-7-7-7-----------|
D|-----------------------------------------------------------------|
   1 + 2 + 3 + 4 + 1 + 2 + 3 + 4 + 1 + 2 + 3 + 4 + 1 + 2 + 3 + 4 +

G|------------------------------------------------------------------------|
D|-----------------10-----10--------------10-----10----------7-8-7--------|
A|-8-8-8-8-8-8-8-8----8-8----8-8-8-10-8-8----8-8----8-8-8-10-------10-8-7-|
D|------------------------------------------------------------------------|
   1 + 2 + 3 + 4 + 1  + 2 +  3 + 4 +  1 + 2  + 3 +  4 + 1 +  2 + 3 +  4 +

Interlude 2:40
G|------------------------------------------------------------------|
D|o-----------------------------------------------------------------|
A|o---------------------------------1-1-1-1-1-1-1-1-1-1-1-1-1-1-1-1-|
D|--0-0-0-0-0-0-0-0-0-0-0-0-0-0-0-0---------------------------------|
    1 + 2 + 3 + 4 + 1 + 2 + 3 + 4 + 1 + 2 + 3 + 4 + 1 + 2 + 3 + 4 +

G|------------------------------------------------------------------|
D|-----------------------------------------------------------------o|
A|---------------------------------0-0-0-0-0-0-0-0-0-0-0-0-0-0-0-0-o|
D|-3-3-3-3-3-3-3-3-3-3-3-3-3-3-3-3----------------------------------|
   1 + 2 + 3 + 4 + 1 + 2 + 3 + 4 + 1 + 2 + 3 + 4 + 1 + 2 + 3 + 4 +

Solo 3:02
G|-----------------------------------------------------------------|
D|---------------------------------3-------------------------------|
A|-1-1-1-1---1-1---1-1-1-1-1-1-1-1---1-1-1---1-1---1-1-1-1-1-1-1-1-|
D|-----------------------------------------------------------------|
   1 + 2 + 3 + 4 + 1 + 2 + 3 + 4 + 1 + 2 + 3 + 4 + 1 + 2 + 3 + 4 +

G|-----------------------------------------------------------------|
D|-----------------------------------------------------------------|
A|-----------------------------------------------------------------|
D|-3-3-3-3-3-3-3-3-3-3-3-3-3-3-3-3-3-3-3-3-3-3-3-3-3-3-3-3-3-3-3-3-|
   1 + 2 + 3 + 4 + 1 + 2 + 3 + 4 + 1 + 2 + 3 + 4 + 1 + 2 + 3 + 4 +

G|-----------------------------------------------------------------|
D|-----------------------------------------------------------------|
A|-1-1-1-----1-1-1-1-1-1-1-1-1-1-1-1-1-1-1-1-1-1-1-1-1-1-1-1-1-1-1-|
D|-----------------------------------------------------------------|
   1 + 2 + 3 + 4 + 1 + 2 + 3 + 4 + 1 + 2 + 3 + 4 + 1 + 2 + 3 + 4 +

G|-----------------------------------------------------------------|
D|-----------------------------------------------------------------|
A|-----------------------------------------------------------------|
D|-3-3-3-3-3-3-3-3-3-3-3-3-3-3-3-3-3-3-3-3-3-3-3-3-3-3-3-3-3-3-3-3-|
   1 + 2 + 3 + 4 + 1 + 2 + 3 + 4 + 1 + 2 + 3 + 4 + 1 + 2 + 3 + 4 +

Bridge 3:23
G|-----------------------------------------------------------------|
D|-----------------------------------------------------------------|
A|-5---5-----5-5-5-1---1-1---1-1-1-----------------3---3-3---3-1-3-|
D|---------------------------------3---3-3---3-3-3-----------------|
   1 + 2 + 3 + 4 + 1 + 2 + 3 + 4 + 1 + 2 + 3 + 4 + 1 + 2 + 3 + 4 +

G|-----------------------------------------------------------------|
D|---------------------------------------------------------2-3-2---|
A|-5-----5---5-5-3-1---1-1-1-1-1-1-----------------3---3-3-------3-|
D|---------------------------------3---3-3-3-3-3-3-----------------|
   1 + 2 + 3 + 4 + 1 + 2 + 3 + 4 + 1 + 2 + 3 + 4 + 1 + 2 + 3 + 4 +

G|-----------------------------------------------------------------|
D|-----------------------------------------------------------------|
A|-5---5---5-5-5-3-1---1-1-1-1-1-1-----------------3---3-3-3-3-1-3-|
D|---------------------------------3---3-3-3-3-3-3-----------------|
   1 + 2 + 3 + 4 + 1 + 2 + 3 + 4 + 1 + 2 + 3 + 4 + 1 + 2 + 3 + 4 +

G|-----------------------------------------------------------------|
D|-----------------------------------------------------------------|
A|-5---5---5-8-7-5-1---1-1-1-1-1-1-----------------3-3-3-3-3-3-3-3-|
D|---------------------------------3---3-3-3-3-3-3-----------------|
   1 + 2 + 3 + 4 + 1 + 2 + 3 + 4 + 1 + 2 + 3 + 4 + 1 + 2 + 3 + 4 +

Rest

Interlude 3:55
G|---------------------------------------------------------------------|
D|-3-/-8-----------------------------------------------------------8-\-|
A|---------------------------------------------------------------------|
D|---------------------------------------------------------------------|
   4 + 1 + 2 + 3 + 4 + 1 + 2 + 3 + 4 + 1 + 2 + 3 + 4 + 1 + 2 + 3 + 4 +

G|-----------------------------------------------------------------|
D|-3---------------------------\-----------------------------------|
A|-----------------------------------------------------------------|
D|---------------------------------3-------------------------------|
   1 + 2 + 3 + 4 + 1 + 2 + 3 + 4 + 1 + 2 + 3 + 4 + 1 + 2 + 3 + 4 +

Chorus 4:05
G|-----------------------------------------------------------------|
D|-----------------------------------------------------------------|
A|-1---1-----1-1-1-1---1-1---1-1-1-1---1---1-1-1---5-5-5-3-5-3-5-7-|
D|-----------------------------------------------------------------|
   1 + 2 + 3 + 4 + 1 + 2 + 3 + 4 + 1 + 2 + 3 + 4 + 1 + 2 + 3 + 4 +

G|-------------------------------------------------------------------------|
D|-----------------10-----10-----8-10-----10-----10-----10-12-10-8-7-8-7---|
A|-8-8-8-8-8-8-8-8----8-8----8-8------8-8----8-8----8-8------------------8-|
D|-------------------------------------------------------------------------|
   1 + 2 + 3 + 4 + 1  + 2 +  3 + 4 +  1 + 2  + 3 +  4 + 1  +  2 +  3 + 4 +

G|-----------------------------------------------------------------|
D|------------------------------------------------/8-8-8-8-8-8-8-8-|
A|-1---1-----1-1-1-1---1-1---1-1-0-1-1-1-1-1-1-1-1-----------------|
D|-----------------------------------------------------------------|
   1 + 2 + 3 + 4 + 1 + 2 + 3 + 4 + 1 + 2 + 3 + 4 + 1 + 2 + 3 + 4 +

G|---------------------------------------------------------------------|
D|-----------------10-----10--------------------------7-8-7-5----------|
A|-8-8-8-8-8-8-8-8----8-8----8-8-8-10-8-8-8-8-8-8-8-8---------8-10-8-7-|
D|---------------------------------------------------------------------|
   1 + 2 + 3 + 4 + 1  + 2 +  3 + 4 +  1 + 2 + 3 + 4 + 1 + 2 + 3 +  4 +

Outro
G|------------------------------------------------------------------|
D|o-----------------------------------------------------------------|
A|o---------------------------------1-1-1-1-1-1-1-1-1-1-1-1-1-1-1-1-|
D|--0-0-0-0-0-0-0-0-0-0-0-0-0-0-0-0---------------------------------|
    1 + 2 + 3 + 4 + 1 + 2 + 3 + 4 + 1 + 2 + 3 + 4 + 1 + 2 + 3 + 4 +

G|------------------------------------------------------------------|
D|-----------------------------------------------------------------o|
A|---------------------------------0-0-0-0-0-0-0-0-0-0-0-0-0-0-0-0-o|
D|-3-3-3-3-3-3-3-3-3-3-3-3-3-3-3-3----------------------------------|
   1 + 2 + 3 + 4 + 1 + 2 + 3 + 4 + 1 + 2 + 3 + 4 + 1 + 2 + 3 + 4 +
Tabbed by Dave Vucko

            
            
Suggest correction
Creating personal tab
Creating personal tab
You can edit any tab online and save it as your Personal.

You can edit, replace or remove any tab part or add personal notes – all changes will be seen only by you.

Personal tabs can be accessed anytime from any device, even offline.
Learn more »
comments
print report bad tab
guest
You may want to rate the tab now too:
select rating
Wanna post a correction for this tab? Suggest correction