Oops, an error
Loading. Please wait.

Strength Of The World bass

version 2
version 2
351 views 1 this week
no commentswrite comment
1 2 3 4 5
2 more votes to show rating
add to favorites
×
Save as Personal and add changes to this tab that will be seen only by you. Learn more ›
×
You can save this tab as Personal to edit and correct it or add notes. All changes will be seen only by you. Learn more »
launch autoscroll
font size
0
reset
guitar tuner
backing track
0:00
0:00
edit
Autoscroll
slow
fast
+/-
esc
set tempo
stop
1:22
G|-------------------------------------------------------------------|
D|o-----------------------------------------------------------------o|
A|o-----------------------------------------------------------------o|
D|--0-------------------------------5--------------------------------|
    1 + 2 + 3 + 4 + 1 + 2 + 3 + 4 + 1 + 2 + 3 + 4 + 1 + 2 + 3 + 4 +

1:34
G|-------------------------------------------------------------------|
D|o-----------------------------------------------------------------o|
A|o-----------------------------------------------------------------o|
D|--0-0-0-0-0-0-0-0-0-0-0-0-0-0-0-0-5-5-5-5-5-5-5-5-5-5-5-5-5-5-5-5--|
    1 + 2 + 3 + 4 + 1 + 2 + 3 + 4 + 1 + 2 + 3 + 4 + 1 + 2 + 3 + 4 +

1:46
G|--------------------------------------------------------------------------------------------------|
D|o---------------------------------5-5-5-5-5-5-5-5-5-5-5-5-5-5-5-5---------------------------------|
A|o-5-5-5-5-5-5-5-5-5-5-5-5-5-5-5-5-----------------------------------------------------------------|
D|---~-------------------------------~------------------------------0---0-0-0-0-0-0-0-1-0-0-1-0-1-0-|
    1 + 2 + 3 + 4 + 1 + 2 + 3 + 4 + 1 + 2 + 3 + 4 + 1 + 2 + 3 + 4 + 1 + 2 + 3 + 4 + 1 + 2 + 3 + 4 +

G|--------------------------------------------------------------------------------------------------|
D|-------------------------------------------------------------------------------------------------o|
A|-------------------------------------------------------------------------------------------------o|
D|-0-0-0-0-0-0-0-0-0-0-0-0-0-0-0-0-5-5-5-5-5-5-5-5-5-5-5-5-5-5-5-5-0---0-0-0-0-0-0-0-1-0-0-1-0-1-0--|
   1 + 2 + 3 + 4 + 1 + 2 + 3 + 4 + 1 + 2 + 3 + 4 + 1 + 2 + 3 + 4 + 1 + 2 + 3 + 4 + 1 + 2 + 3 + 4 +

2:22
G|-------------------------------------------------------------------|
D|o-----------------------------------------------------------------o|
A|o-----------------------------------------------------------------o|
D|--00000-----------00000-----------3-2-1---3-2-1-------1-1-1-1-1-1--|
    1 + 2 + 3 + 4 + 1 + 2 + 3 + 4 + 1 + 2 + 3 + 4 + 1 + 2 + 3 + 4 +

2:33
G|-------------------------------------------------------------------------------------------------|
D|-3-2-0-----0-2-3-3-2-0-----0-2-3-5-3-2-----2-3-5-5-3-2-----2-3-5-0-------------/-7---------------|
A|-------1---------------1---------------3---------------3-----------------------------------------|
D|-------------------------------------------------------------------------------------------------|
   1 + 2 + 3 + 4 + 1 + 2 + 3 + 4 + 1 + 2 + 3 + 4 + 1 + 2 + 3 + 4 + 1 + 2 + 3 + 4 + 1 + 2 + 3 + 4 +

2:42
G|-----------------------------------------------------------------|
D|-----------------------------------------------------------------|
A|--------------5----5-5---5-5-5-----------------------------------|
D|-0--0--0--0----------------------5---5---5-5-5-----5-5-5-5-5-5-5-|
   1 + 2 + 3 + 4 + 1 + 2 + 3 + 4 + 1 + 2 + 3 + 4 + 1 + 2 + 3 + 4 +

G|-----------------------------------------------------------------|
D|-----------------------------------------------------------------|
A|-3--3--3--3---3----3-3---3-3-3-3-----------------0---0---3-3-3-3-|
D|---------------------------------3---3---3-3-3-3-----------------|
   1 + 2 + 3 + 4 + 1 + 2 + 3 + 4 + 1 + 2 + 3 + 4 + 1 + 2 + 3 + 4 +

2:55
G|-----------------------------------------------------------------|
D|-----------------------------------------------------------------|
A|--------------5----5-5---5-5-5-5---------------------------------|
D|-0--0--0--0----------------------5---5---5-5-5---5-5-5---5-5-5-5-|
   1 + 2 + 3 + 4 + 1 + 2 + 3 + 4 + 1 + 2 + 3 + 4 + 1 + 2 + 3 + 4 +

G|-----------------------------------------------------------------|
D|-----------------------------------------------------------------|
A|-3--3--3--3---3----3-3---3-3-3-------------------0-0-0-0-3-3-3-3-|
D|---------------------------------3---3---3-3-3-3-----------------|
   1 + 2 + 3 + 4 + 1 + 2 + 3 + 4 + 1 + 2 + 3 + 4 + 1 + 2 + 3 + 4 +

3:06
G|-----------------------------------------------------------------|
D|-----------------------------------------------------------------|
A|-5-----5-5---5-0-3---3-3---------1-----1-1---1-----1-1-1-1-1-1-1-|
D|--~----------------------3-----3-~-------------------------------|
   1 + 2 + 3 + 4 + 1 + 2 + 3 + 4 + 1 + 2 + 3 + 4 + 1 + 2 + 3 + 4 +

G|-----------------------------------------------------------------|
D|-----------------------------------------------------------------|
A|---------------------------------3-----3-3---r---1---------------|
D|-5~------5---5-5-3-------3-----3-~-------------------------------|
   1 + 2 + 3 + 4 + 1 + 2 + 3 + 4 + 1 + 2 + 3 + 4 + 1 + 2 + 3 + 4 +

3:19
G|-------------------------------------------------------------------------------------------------|
D|-------------------------------------------------------------------------------------------------|
A|-----------------------------------------------------------------1---------------3---------------|
D|-0-------------------------------5---------------------------------------------------------------|
   1 + 2 + 3 + 4 + 1 + 2 + 3 + 4 + 1 + 2 + 3 + 4 + 1 + 2 + 3 + 4 + 1 + 2 + 3 + 4 + 1 + 2 + 3 + 4 +

3:28
G|-------------------------------------------------------------------------------------------------|
D|-------------------------------------------------------------------------------------------------|
A|-------------------------------------------------------------------------------------------------|
D|-0-0-0-0-0-0-0-0-0-0-0-0-0-0-0-0-5-5-5-5-5-5-5-5-5-5-5-5-5-5-5-5-0---0-0-0-0-0-0-0-1-0-0-1-0-1-0-|
   1 + 2 + 3 + 4 + 1 + 2 + 3 + 4 + 1 + 2 + 3 + 4 + 1 + 2 + 3 + 4 + 1 + 2 + 3 + 4 + 1 + 2 + 3 + 4 +

G|-------------------------------------------------------------------------------------------------|
D|---------------------------------5-5-5-5-5-5-5-5-5-5-5-5-5-5-5-5---------------------------------|
A|-------------------------------------------------------------------------------------------------|
D|-0-0-0-0-0-0-0-0-0-0-0-0-0-0-0-0--~------------------------------0---0-0-0-0-0-0-0-1-0-0-1-0-1-0-|
   1 + 2 + 3 + 4 + 1 + 2 + 3 + 4 + 1 + 2 + 3 + 4 + 1 + 2 + 3 + 4 + 1 + 2 + 3 + 4 + 1 + 2 + 3 + 4 +

3:46
G|-------------------------------------------------------------------|
D|o-----------------------------------------------------------------o|
A|o-----------------------------------------------------------------o|
D|--00000-----------00000-----------3-2-1---3-2-1-------1-1-1-1-1-1--|
    1 + 2 + 3 + 4 + 1 + 2 + 3 + 4 + 1 + 2 + 3 + 4 + 1 + 2 + 3 + 4 +

3:58
G|-------------------------------------------------------------------|
D|o-----7-----------------------------------------------------------o|
A|o------8--------7-------7-8-7-5---------5-------7-------8---7-5---o|
D|--0-0-------5-7-----5-8---------7-5-7-8-----5-7-----5-8---------7--|
    1 + 2 + 3 + 4 + 1 + 2 + 3 + 4 + 1 + 2 + 3 + 4 + 1 + 2 + 3 + 4 +

4:11
G|-------------------------------------------------------------------------------------------------|
D|-3-2-0-----0-2-3-3-2-0-----0-2-3-5-3-2-----2-3-5-5-3-2-----2-3-5-0-------------/-7---------------|
A|-------1---------------1---------------3---------------3-----------------------------------------|
D|-------------------------------------------------------------------------------------------------|
   1 + 2 + 3 + 4 + 1 + 2 + 3 + 4 + 1 + 2 + 3 + 4 + 1 + 2 + 3 + 4 + 1 + 2 + 3 + 4 + 1 + 2 + 3 + 4 +

4:20
G|-----------------------------------------------------------------|
D|-----------------------------------------------------------------|
A|--------------5----5-5---5-5-5-----------------------------------|
D|-0--0--0--0----------------------5---5---5-5-5---5-5-5-5-5-5-5-5-|
   1 + 2 + 3 + 4 + 1 + 2 + 3 + 4 + 1 + 2 + 3 + 4 + 1 + 2 + 3 + 4 +

G|-----------------------------------------------------------------|
D|-----------------------------------------------------------------|
A|-3--3--3--3---3----3-3---3-3-3-------------------0---0-0-3-3-3-3-|
D|---------------------------------3---3---3-3-3-3-----------------|
   1 + 2 + 3 + 4 + 1 + 2 + 3 + 4 + 1 + 2 + 3 + 4 + 1 + 2 + 3 + 4 +

4:31
G|-----------------------------------------------------------------|
D|-----------------------------------------------------------------|
A|--------------5----5-5---5-5-5-----------------------------------|
D|-0--0--0--0----------------------5---5---5-5-5-5-5-5-5-5-5-5-5-5-|
   1 + 2 + 3 + 4 + 1 + 2 + 3 + 4 + 1 + 2 + 3 + 4 + 1 + 2 + 3 + 4 +

G|-----------------------------------------------------------------|
D|-----------------------------------------------------------------|
A|-3--3--3--3---3----3-3---3-3-3-------------------0-0-0-0-3-3-3-3-|
D|---------------------------------3---3---3-3-3-3-----------------|
   1 + 2 + 3 + 4 + 1 + 2 + 3 + 4 + 1 + 2 + 3 + 4 + 1 + 2 + 3 + 4 +

4:44
G|-----------------------------------------------------------------|
D|-----------------------------------------------------------------|
A|-5-----5-5-------3-----3---------1-----1-1---1-----1-1-1-1-1-1---|
D|--~----------------------3-----3-~-------------------------------|
   1 + 2 + 3 + 4 + 1 + 2 + 3 + 4 + 1 + 2 + 3 + 4 + 1 + 2 + 3 + 4 +

G|-----------------------------------------------------------------|
D|-----------------------------------------------------------------|
A|---------------------------------3-----3-3---r---1---------------|
D|-5~----5-5-----5-3---3-3-3-3---3---------------------------------|
   1 + 2 + 3 + 4 + 1 + 2 + 3 + 4 + 1 + 2 + 3 + 4 + 1 + 2 + 3 + 4 +

4:56
G|-----------------------------------------------------------------|
D|-----------------------------------------------------------------|
A|-----------------------------------------------------------------|
D|-0-------------------------------5-------------------------------|
   1 + 2 + 3 + 4 + 1 + 2 + 3 + 4 + 1 + 2 + 3 + 4 + 1 + 2 + 3 + 4 +

G|-----------------------------------------------------------------|
D|---------------------------------1---1-----------3---3-----------|
A|-1---1-----------3---3-------------------------------------------|
D|--~--~-----------------------------------------------------------|
   1 + 2 + 3 + 4 + 1 + 2 + 3 + 4 + 1 + 2 + 3 + 4 + 1 + 2 + 3 + 4 +

G|-----------------------------------------------------------------|
D|-5---5---5-5-5---5---5-5-5-5-5---5---5-5-5-5-5---5-5-3-3-1-1-0-0-|
A|-----------------------------------------------------------------|
D|---~-------------------------------~-----------------------------|
   1 + 2 + 3 + 4 + 1 + 2 + 3 + 4 + 1 + 2 + 3 + 4 + 1 + 2 + 3 + 4 +

5:14
G|-----------------------------------------------------------------|
D|-----------------------------------------------------------------|
A|-----------------------------------------------------------------|
D|-1~--1---1-1-1---3---3---3-3-3---5---5---5-5-5-5-5-5-5---5-5-5-5-|
   1 + 2 + 3 + 4 + 1 + 2 + 3 + 4 + 1 + 2 + 3 + 4 + 1 + 2 + 3 + 4 +

G|-----------------------------------------------------------------|
D|-1~--1---1-1-1---3---3---3-3-3---5---5---5-5-5-5-5-5-5---5-5-5-5-|
A|-----------------------------------------------------------------|
D|-----------------------------------------------------------------|
   1 + 2 + 3 + 4 + 1 + 2 + 3 + 4 + 1 + 2 + 3 + 4 + 1 + 2 + 3 + 4 +

5:25
G|-----------------------------------------------------/-5---4-----|
D|-------------------------------------------------------------5-4-|
A|-----------------------------------------------------------------|
D|-2---------------------------------------------------------------|
   1 + 2 + 3 + 4 + 1 + 2 + 3 + 4 + 1 + 2 + 3 + 4 + 1 + 2 + 3 + 4 +

G|-----------------------------------------------------------------|
D|-2-------------------------5-4h5-2-------------------------------|
A|-----------------------------------------------------------------|
D|-----------------------------------------------------------------|
   1 + 2 + 3 + 4 + 1 + 2 + 3 + 4 + 1 + 2 + 3 + 4 + 1 + 2 + 3 + 4 +

G|-----------------------------------------------------------------|
D|-2-------------------------------2-------------------------------|
A|---------------------------------------------------------7---\---|
D|-----------------------------------------------------------------|
   1 + 2 + 3 + 4 + 1 + 2 + 3 + 4 + 1 + 2 + 3 + 4 + 1 + 2 + 3 + 4 +

5:43
G|------------------------------------------------------------------|
D|o-----------------------------------------------------------------|
A|o-5-----------------------8---7-5-3-------------------3---5---7-7-|
D|------------------------------------------------------------------|
    1 + 2 + 3 + 4 + 1 + 2 + 3 + 4 + 1 + 2 + 3 + 4 + 1 + 2 + 3 + 4 +

G|------------------------------------------------------------------|
D|-----------------------------------------------------------------o|
A|-8---------------1---------------1-/-3-----1---0-0---------------o|
D|------------------------------------------------------------------|
   1 + 2 + 3 + 4 + 1 + 2 + 3 + 4 + 1 + 2 + 3 + 4 + 1 + 2 + 3 + 4 +

6:07
G|-----------------------------------------------------------------|
D|---------------------------------5-5-5---5---5---5-5-5---5---5-3-|
A|-5---5---5-5-5---5-5-5---5---5-----------------------------------|
D|-----------------------------------------------------------------|
   1 + 2 + 3 + 4 + 1 + 2 + 3 + 4 + 1 + 2 + 3 + 4 + 1 + 2 + 3 + 4 +

G|-----------------------------------------------------------------|
D|-----------------------------------------------------------------|
A|-5---5---5-5-5---5-5-5-5-5---5-----------------------------------|
D|---------------------------------5-5-5---5---5---5-5-5---5---5---|
   1 + 2 + 3 + 4 + 1 + 2 + 3 + 4 + 1 + 2 + 3 + 4 + 1 + 2 + 3 + 4 +

G|-------------------------------------------------------------------------------------------------|
D|-------------------------------------------------------------------------------------------------|
A|-1---1-1-1-1-1-1-3---3---3-3-3-3-5---5-5-5-5-5-5---5-5-5-5---5-3-1---1-1-1---1---3---3---3---3---|
D|-------------------------------------------------------------------------------------------------|
   1 + 2 + 3 + 4 + 1 + 2 + 3 + 4 + 1 + 2 + 3 + 4 + 1 + 2 + 3 + 4 + 1 + 2 + 3 + 4 + 1 + 2 + 3 + 4 +

6:30
G|-----------------------------------------------------------------|
D|-------------------------3---------------------------------------|
A|-5-----5-5-------3-----3---------1-----1-1---1-----1-1-1-1-1-1---|
D|--~--------------------------------------------------------------|
   1 + 2 + 3 + 4 + 1 + 2 + 3 + 4 + 1 + 2 + 3 + 4 + 1 + 2 + 3 + 4 +

G|-----------------------------------------------------------------|
D|-----------------------------------------------------------------|
A|---------------------------------3-----3-3---r---1---------------|
D|-5~----5-5-------3-----3-3---3-----------------------------------|
   1 + 2 + 3 + 4 + 1 + 2 + 3 + 4 + 1 + 2 + 3 + 4 + 1 + 2 + 3 + 4 +

6:43
G|-----------------------------------------------------------------|
D|-----------------------------------------------------------------|
A|-----------------------------------------------------------------|
D|-0-0-0---0-0-0---0-0-0---0-0-0---5-5-5---5-5-5---5-5-5---5-5-5---|
   1 + 2 + 3 + 4 + 1 + 2 + 3 + 4 + 1 + 2 + 3 + 4 + 1 + 2 + 3 + 4 +

G|-----------------------------------------------------------------|
D|---------------------------------1---1---1-1-1---3---3---3-3-3---|
A|-1---1---1-1-1---3---3---3-3-3-----------------------------------|
D|-----------------------------------------------------------------|
   1 + 2 + 3 + 4 + 1 + 2 + 3 + 4 + 1 + 2 + 3 + 4 + 1 + 2 + 3 + 4 +

G|---------------------------------|
D|---------------------------------|
A|-3-333-333-333-333-333-333-333---|
D|---------------------------------|
   1 + 2 + 3 + 4 + 1 + 2 + 3 + 4 +

6:58
G|-----------------------------------------------------------------|
D|-----------------------------------------------------------------|
A|-----------------------------------------------------------------|
D|-0-0-0---0-0-0---0-0-0---0-0-0---5-5-5---5-5-5---5-5-5---5-5-5---|
   1 + 2 + 3 + 4 + 1 + 2 + 3 + 4 + 1 + 2 + 3 + 4 + 1 + 2 + 3 + 4 +

G|-----------------------------------------------------------------|
D|---------------------------------1---1---1-1-1---3---3---3-3-3---|
A|-1---1---1-1-1---3---3---3-3-3-----------------------------------|
D|-----------------------------------------------------------------|
   1 + 2 + 3 + 4 + 1 + 2 + 3 + 4 + 1 + 2 + 3 + 4 + 1 + 2 + 3 + 4 +

G|-----------------------------------------------------------------|
D|-5---5---5-5-5---5---5-5-5-5-5---5---5-5-5-5-5---5-5-3-3-1-1-0-0-|
A|-----------------------------------------------------------------|
D|---~-------------------------------------------------------------|
   1 + 2 + 3 + 4 + 1 + 2 + 3 + 4 + 1 + 2 + 3 + 4 + 1 + 2 + 3 + 4 +

7:17
G|-----------------------------------------------------------------|
D|-----------------------------------------------------------------|
A|-----------------------------------------------------------------|
D|-1~--1---1---1---3---3---3-3-3---5---5-5-5-5-5---5-5-5-5-5-5-5-5-|
   1 + 2 + 3 + 4 + 1 + 2 + 3 + 4 + 1 + 2 + 3 + 4 + 1 + 2 + 3 + 4 +

G|-----------------------------------------------------------------|
D|-1~--1-1-1-1-1---3---3---3---3---5---5-5-5-5-5-5-5-5-5-5-5-5-5-5-|
A|-----------------------------------------------------------------|
D|-----------------------------------------------------------------|
   1 + 2 + 3 + 4 + 1 + 2 + 3 + 4 + 1 + 2 + 3 + 4 + 1 + 2 + 3 + 4 +

7:29
G|-----------------------------------------------------------------|
D|-----------------------------------------------------------------|
A|--------------5----5-5---5-5-5-----------------------------------|
D|-0--0--0--0----------------------5---5---5-5-5-----5-5-5-5-5-5-5-|
   1 + 2 + 3 + 4 + 1 + 2 + 3 + 4 + 1 + 2 + 3 + 4 + 1 + 2 + 3 + 4 +

G|-----------------------------------------------------------------|
D|-----------------------------------------------------------------|
A|-3--3--3--3---3----3-3---3-3-3-3-----------------0---0---3-3-3-3-|
D|---------------------------------3---3---3-3-3-3-----------------|
   1 + 2 + 3 + 4 + 1 + 2 + 3 + 4 + 1 + 2 + 3 + 4 + 1 + 2 + 3 + 4 +

G|-----------------------------------------------------------------|
D|-----------------------------------------------------------------|
A|--------------5----5-5---5-5-5-5---------------------------------|
D|-0--0--0--0----------------------5---5---5-5-5---5-5-5---5-5-5-5-|
   1 + 2 + 3 + 4 + 1 + 2 + 3 + 4 + 1 + 2 + 3 + 4 + 1 + 2 + 3 + 4 +

G|-----------------------------------------------------------------|
D|-----------------------------------------------------------------|
A|-3--3--3--3---3----3-3---3-3-3-------------------0-0-0-0-3-3-3-3-|
D|---------------------------------3---3---3-3-3-3-----------------|
   1 + 2 + 3 + 4 + 1 + 2 + 3 + 4 + 1 + 2 + 3 + 4 + 1 + 2 + 3 + 4 +

7:53
G|-----------------------------------------------------------------|
D|-----------------------------------------------------------------|
A|-5-------5---5-5-3-----3---------1-----1-1-1-1-----1-1-1-1-1-1-1-|
D|--~----------------------3---------------------------------------|
   1 + 2 + 3 + 4 + 1 + 2 + 3 + 4 + 1 + 2 + 3 + 4 + 1 + 2 + 3 + 4 +

G|-----------------------------------------------------------------|
D|-----------------------------------------------------------------|
A|---------------------------------3-----3-3---r---1-----1-1-1-1---|
D|-5~----5-5-5-----3-----3-3-3-------------------------------------|
   1 + 2 + 3 + 4 + 1 + 2 + 3 + 4 + 1 + 2 + 3 + 4 + 1 + 2 + 3 + 4 +

8:05
G|-----------------------------------------------------------------|
D|-----------------------------------------------------------------|
A|-5---5---5---5---3---3-----------1---1-1-1-1-1---1---1-1-1-1-1---|
D|--~----------------------3---3-----------------------------------|
   1 + 2 + 3 + 4 + 1 + 2 + 3 + 4 + 1 + 2 + 3 + 4 + 1 + 2 + 3 + 4 +

G|---------------------------------|
D|---------------------------------|
A|---------------------------------|
D|-5~--5-5-5-5-5---3---3-3-3-3-3---|
   1 + 2 + 3 + 4 + 1 + 2 + 3 + 4 +

8:14
G|-------------------------------------------------------------------|
D|o-----------------------------------------------------------------o|
A|o-3---3---3---3---3---3---3---3---1---1---1---1---1---1---1---1---o| x3
D|-------------------------------------------------------------------|
    1 + 2 + 3 + 4 + 1 + 2 + 3 + 4 + 1 + 2 + 3 + 4 + 1 + 2 + 3 + 4 +

G|-------------------------------------------------------------------|
D|o-----------------------------------------------------------------o|
A|o-----------------------------------------------------------------o| x4
D|--1---1---1---1---3---3---3---3---5---5---5---5---5---5---5---5----|
    1 + 2 + 3 + 4 + 1 + 2 + 3 + 4 + 1 + 2 + 3 + 4 + 1 + 2 + 3 + 4 +

8:55
G|-----------------------------------------------------------------|
D|-----------------------------------------------------------------|
A|-----------------------------------------------------------------|
D|-1-------1-------3-------3-------5-------5-------5-------5-------|
   1 + 2 + 3 + 4 + 1 + 2 + 3 + 4 + 1 + 2 + 3 + 4 + 1 + 2 + 3 + 4 +

G|-----------------------------------------------------------------|
D|---------/---8---7---5---3-3-5-7-5-------------------------------|
A|-----------------------------------------------------------------|
D|-1---------------------------------------------------------------|
   1 + 2 + 3 + 4 + 1 + 2 + 3 + 4 + 1 + 2 + 3 + 4 + 1 + 2 + 3 + 4 +

            
            
Suggest correction
Creating personal tab
Creating personal tab
You can edit any tab online and save it as your Personal.

You can edit, replace or remove any tab part or add personal notes – all changes will be seen only by you.

Personal tabs can be accessed anytime from any device, even offline.
Learn more »
Give kudos to tab author, rate the tab!
1 2 3 4 5
comments
print report bad tab
guest
You may want to rate the tab now too:
select rating
Wanna post a correction for this tab? Suggest correction