Oops, an error
Loading. Please wait.

Strength Of The World tab

version 5
version 5
7,493 views 1 this week
5 commentsread comments
1 2 3 4 5
x 11
add to favorites
×
Save as Personal and add changes to this tab that will be seen only by you. Learn more ›
×
You can save this tab as Personal to edit and correct it or add notes. All changes will be seen only by you. Learn more »
launch autoscroll
font size
0
reset
how to read this tab
guitar tuner
backing track
0:00
0:00
edit
Autoscroll
slow
fast
+/-
esc
set tempo
stop
First off, hi to everyone on the ultimateguitar site.
 This is my first tab, and I really felt there needed to be a clean version
 of the main riff to this song online so i signed up, and yes it's not
 labled as intro but it's not really the whole song or the intro. I will in
 the future be tabing the entire song. It is very easy to play and is also
very catchy so injoy. (This is the part after the orcastrated intro, and
listen to the song for timing if you need to. If you know the song you
should pick it up right away)

e---------------------------------------------------------|
a---------------------------------------------------------|
d---------------------------------------------------------|
g-----7------5--------------------------------------------|
b---5---8--5---7--5-7-8--7-5---5~~~~~---------------------|
D-0--------------------------8-5~~~~~---------------------|

e---------------------------------------------------------|
a---------------------------------------------------------|
d---------------------------------------------------------|
g-----7------5--------------------------------------------|
b---5---8--5---7--5-7-8--7-5---5~~~~~---------------------|
D-0--------------------------8-5~~~~~---------------------|

e---------------------------------------------------------|
a---------------------------------------------------------|
d---------------------------------------------------------|
g-----7------5--------------------------------------------|
b---5---8--5---7--5-7-8--7-5---5~~~~~---------------------|
D-0--------------------------8-5~~~~~---------------------|

e---------------------------------------------------------|
a---------------------------------------------------------|
d---------------------------------------------------------|
g-----7------5--------------------------------------------|
b---5---8--5---7--5-7-8--7-5---5----5555555---------------|
D-0--------------------------8-5----5555555---------------|

4X
e---------------------------------------------------------|
a---------------------------------------------------------|
d---------------------------------------------------------|
g-----7------5--------------------------------------------|
b---5---8--5---7--5-7-8--7-5---------5------7------8--7-5-|
D-0--------------------------8-5-7-8----7-5----7-5--------|


This part is after the above section and is played after all 4 times
* is palm muted
e---------------------------------------------------------|
a---------------------------------------------------------|
d------*-*-*-*-*-*---*-*---*------------------------------|
g---0--0-0-0-0-0-0-1-0-0-1-0-1p0--------------------------|
b---0--0-0-0-0-0-0-1-0-0-1-0-1p0--------------------------|
D---0--0-0-0-0-0-0-1-0-0-1-0-1p0--------------------------|

            
            
Suggest correction
Creating personal tab
Creating personal tab
You can edit any tab online and save it as your Personal.

You can edit, replace or remove any tab part or add personal notes – all changes will be seen only by you.

Personal tabs can be accessed anytime from any device, even offline.
Learn more »
comments
print report bad tab
5 comments total. Showing first comments.
0 reply
randomhero93 90 Apr 06, 2009 11:32 AM

eadgbD? not only upside-down, but it's wrong. 1-star, next time, try

D

0 reply
randomhero93 90 Apr 06, 2009 11:33 AM

great, it didn't work... but from top to bottom, it should read: ebGDAD

0 reply
jjhand 19,283 Apr 07, 2009 01:03 PM

And I thought anybody could label the strings correctly on tab? Check out other tabs on how to do that. Also your spelling is not very good

guest
You may want to rate the tab now too:
select rating
Wanna post a correction for this tab? Suggest correction