Oops, an error
Loading. Please wait.

The Stage intro tab

version 5
version 5

Intro

  • It is the first tab , so it's obviously the best one so far.
  • This tab shows the tapping method for the stage intro.
  • My adaptation of the intro by ear.
  • Detailed tapping description, Drop D Tuning.

Whole song

  • This is my fisrt tabe, please rate and enjoy.

Interactive

196 views 6 this week
no commentswrite comment
1 2 3 4 5
3 more votes to show rating
add to favorites
×
Save as Personal and add changes to this tab that will be seen only by you. Learn more ›
×
You can save this tab as Personal to edit and correct it or add notes. All changes will be seen only by you. Learn more »
launch autoscroll
font size
0
reset
how to read this tab
guitar tuner
backing track
0:00
0:00
edit
Autoscroll
slow
fast
+/-
esc
set tempo
stop
Tuning: D A D g b e
Or: E A D g b e
3 Finger Tapping
Song Link: https://www.youtube.com/watch?v=ZaAJ-LslhfE
If you cant click it, cody and paste it into the adress bar.

e|-----------------------------------------------------------------------------------------------------------|
b|5-7-12-5-7-12-5-7-12-5-7-12-5-7-12-7-5-8-13-5-8-13-5-8-13-5-8-13-5-8-13-8-5-10-13-5-10-13-5-10-13-5-10-13-10
g|-----------------------------------------------------------------------------------------------------------|
D|-----------------------------------------------------------------------------------------------------------|
A|-----------------------------------------------------------------------------------------------------------|
D|-----------------------------------------------------------------------------------------------------------|

e|-----------------------------------------------------------------------------------------------------------|
b|4-5-13-4-5-13-4-5-12-4-5-12-4-5-12-5-5-7-12-5-7-12-5-7-12-5-7-12-5-7-12-7-5-8-13-5-8-13-5-8-13-5-8-13-5-8--|
g|-----------------------------------------------------------------------------------------------------------|
D|-----------------------------------------------------------------------------------------------------------|
A|-----------------------------------------------------------------------------------------------------------|
D|-----------------------------------------------------------------------------------------------------------|

e|--------------------------------------------------------------14-19-14-19-14-------------------------------|
b|12-5-8-13-5-8-13-5-8-13-5-8-13-5-8-13-8-4-5-13-4-5-13-4-1-2-7----------------------------------------------|
g|-----------------------------------------------------------------------------------------------------------|
D|-----------------------------------------------------------------------------------------------------------|
A|-----------------------------------------------------------------------------------------------------------|
D|-----------------------------------------------------------------------------------------------------------|

            
            
Suggest correction
Creating personal tab
Creating personal tab
You can edit any tab online and save it as your Personal.

You can edit, replace or remove any tab part or add personal notes – all changes will be seen only by you.

Personal tabs can be accessed anytime from any device, even offline.
Learn more »
Give kudos to tab author, rate the tab!
1 2 3 4 5
comments
print report bad tab
guest
You may want to rate the tab now too:
select rating
Wanna post a correction for this tab? Suggest correction