Oops, an error
Loading. Please wait.

Unbound The Wild Ride bass

version 2
version 2

Whole song

Interactive

1,753 views 3 this week
2 commentsread comments
1 2 3 4 5
x 3
add to favorites
×
Save as Personal and add changes to this tab that will be seen only by you. Learn more ›
×
You can save this tab as Personal to edit and correct it or add notes. All changes will be seen only by you. Learn more »
launch autoscroll
font size
0
reset
guitar tuner
edit
Autoscroll
slow
fast
+/-
esc
set tempo
stop
                              Unbound (The Wild Ride)                                
Tabbed by: Matt Smith
Modified by: Jordan C. Dietrich

                                                           Avenged Sevenfold
Johnny Christ

See Below for Section names

Progression:
Intro x2
Verse x2
Pre-Chorus
Chorus
Intro
Verse x2
Pre-Chorus
Chorus
Bridge
Choir Section
Sweep Riff
Choir Section 2
Clean Riff
Outro


    Intro
     E  E  E  E  E  E  E  E     E  E  E  E  E  E  E  E   
G||--------------------------|--------------------------|
D||--------------------------|--------------------------|
A||--5--5--5--5--5--5--5--5--|--1--1--1--1--1--1--1--1--|
D||--------------------------|--------------------------|


  E  E  E  E  E  E  E  E     E  E  E  E  E  E  E  E   
--------------------------|--------------------------|
--------------------------|--------------------------|
--5--5--5--5--5--5--5--5--|--1--1--1--1--1--1--1--1--|
--------------------------|--------------------------|

						      Verse
  E  E  E  E  E  E  E  E     E  E  E  E  E  E  E  E                     
--------------------------|--------------------------|-----|-----|-----|
--------------------------|--------------------------|-----|-----|-----|
--3--3--3--3--3--3--3--3--|--3--3--3--3--3--3--3--3--|-----|-----|-----|
--------------------------|--------------------------|-----|-----|-----|


        E  E  E  E  E  E  E  E     E  E  E  E  E  E  E  E   
-----|--------------------------|--------------------------|
-----|--------------------------|--------------------------|
-----|--3--3--3--3--3--3--3--3--|--3--3--3--3--3--3--3--3--|
-----|--------------------------|--------------------------|


  E  E  E  E  E  E  E  E     E  E  E  E  E  E  E  E   
--------------------------|--------------------------|
--------------------------|--------------------------|
--------------------------|--------------------------|
--0--0--0--0--0--0--0--0--|--0--0--0--0--0--0--0--0--|

  Pre-Chorus
  E  E  E  E  E  E  E  E     E  E  E  E  E  E  E  E   
--------------------------|--------------------------|
--------------------------|--------------------------|
--1--1--1--1--1--1--1--1--|--3--3--3--3--3--3--3--3--|
--------------------------|--------------------------|


  E  E  E  E  E  E  E  E     E  E  E  E  E  E  E  E   
--------------------------|--------------------------|
--------------------------|--------------------------|
--5--5--5--5--3--3--3--3--|--1--1--1--1--0--0--0--0--|
--------------------------|--------------------------|


  E  E  E  E  E  E  E  E     E  E  E  E  E  E  E  E   
--------------------------|--------------------------|
--------------------------|--------------------------|
--1--1--1--1--1--1--1--1--|--0--0--0--0--0--0--0--0--|
--------------------------|--------------------------|

  Chorus
  E  E  E  E  E  E  E  E     E  E  E  E  E  E  E  E   
--------------------------|--------------------------|
--------------------------|--------------------------|
--------------------------|--5--5--5--5--5--5--5--5--|
--5--5--5--5--5--5--5--5--|--------------------------|


  E  E  E  E  E  E  E  E     E  E  E  E  E  E  E  E   
--------------------------|--------------------------|
--------------------------|--------------------------|
--------------------------|--5--5--5--5--5--5--5--5--|
--5--5--5--5--5--5--5--5--|--------------------------|


  E  E  E  E  E  E  E  E     E  E  E  E  E  E  E  E   
--------------------------|--------------------------|
--------------------------|--------------------------|
--6--6--6--6--6--6--6--6--|--1--1--1--1--1--1--1--1--|
--------------------------|--------------------------|


  E  E  E  E  E  E  E  E     E  E  E  E  E  E  E  E   
--------------------------|--------------------------|
--------------------------|--------------------------|
--0--0--0--0--0--0--0--0--|--5--5--5--5--5--5--5--5--|
--------------------------|--------------------------|


  E  E  E  E  E  E  E  E     E  E  E  E  E  E  E  E   
--------------------------|--------------------------|
--------------------------|--------------------------|
--------------------------|--5--5--5--5--5--5--5--5--|
--5--5--5--5--5--5--5--5--|--------------------------|


  E  E  E  E  E  E  E  E     E  E  E  E  E  E  E  E   
--------------------------|--------------------------|
--------------------------|--------------------------|
--------------------------|--5--5--5--5--5--5--5--5--|
--5--5--5--5--5--5--5--5--|--------------------------|


  E  E  E  E  E  E  E  E     E  E  E  E  E  E  E  E   
--------------------------|--------------------------|
--------------------------|--------------------------|
--------------------------|--------------------------|
--1--1--1--1--1--1--1--1--|--3--3--3--3--3--3--3--3--|


  E  E  E  E  E  E  E  E     E  Q.     H         
--------------------------|---------------------|
--------------------------|---------------------|
--------------------------|---------------------|
--5--5--5--5--5--5--5--5--|--5------------------|

  Bridge
  |--3--|  |--3--|  |--3--|  |--3--|   
  E  E  E  E  E  E  E  E  E  E  E  E   
--------------------------------------|
--------------------------------------|
--------------------------------------|
--0--0--0--0--0--0--3--3--3--3--3--3--|


  |--3--|  |--3--|  |--3--|  |--3--|   
  E  E  E  E  E  E  E  E  E  E  E  E   
--------------------------------------|
--------------------------------------|
--------------------------------------|
--5--5--5--5--5--5--3--3--3--3--3--3--|


  |--3--|  |--3--|  |--3--|  |--3--|   
  E  E  E  E  E  E  E  E  E  E  E  E   
--------------------------------------|
--------------------------------------|
--------------------------------------|
--8--8--8--8--8--8--7--7--7--7--7--7--|


  |--3--|  |--3--|  |--3--|  |--3--|   
  E  E  E  E  E  E  E  E  E  E  E  E   
--------------------------------------|
--------------------------------------|
--4--4--4--4--4--4--5--5--5--5--5--5--|
--------------------------------------|


  |--3--|  |--3--|  |--3--|  |--3--|   
  E  E  E  E  E  E  E  E  E  E  E  E   
--------------------------------------|
--------------------------------------|
--------------------------------------|
--0--0--0--0--0--0--3--3--3--3--3--3--|


  |--3--|  |--3--|  |--3--|  |--3--|   
  E  E  E  E  E  E  E  E  E  E  E  E   
--------------------------------------|
--------------------------------------|
--------------------------------------|
--5--5--5--5--5--5--3--3--3--3--3--3--|


  |--3--|  |--3--|  |--3--|  |--3--|   
  E  E  E  E  E  E  E  E  E  E  E  E   
--------------------------------------|
--------------------------------------|
--------------------------------------|
--8--8--8--8--8--8--7--7--7--7--7--7--|


  |--3--|  |--3--|  |--3--|  |--3--|   
  E  E  E  E  E  E  E  E  E  E  E  E   
--------------------------------------|
--------------------------------------|
--4--4--4--4--4--4--5--5--5--5--5--5--|
--------------------------------------|


  |--3--|  |--3--|  |--3--|  |--3--|   
  E  E  E  E  E  E  E  E  E  E  E  E   
--------------------------------------|
--------------------------------------|
--------------------------------------|
--0--0--0--0--0--0--3--3--3--3--3--3--|


  |--3--|  |--3--|  |--3--|  |--3--|   
  E  E  E  E  E  E  E  E  E  E  E  E   
--------------------------------------|
--------------------------------------|
--------------------------------------|
--5--5--5--5--5--5--3--3--3--3--3--3--|


  |--3--|  |--3--|  |--3--|  |--3--|   
  E  E  E  E  E  E  E  E  E  E  E  E   
--------------------------------------|
--------------------------------------|
--------------------------------------|
--8--8--8--8--8--8--7--7--7--7--7--7--|


  |--3--|  |--3--|  |--3--|  |--3--|   
  E  E  E  E  E  E  E  E  E  E  E  E   
--------------------------------------|
--------------------------------------|
--4--4--4--4--4--4--5--5--5--5--5--5--|
--------------------------------------|


  |--3--|  |--3--|  |--3--|  |--3--|   
  E  E  E  E  E  E  E  E  E  E  E  E   
--------------------------------------|
--------------------------------------|
--------------------------------------|
--0--0--0--0--0--0--3--3--3--3--3--3--|


  |--3--|  |--3--|  |--3--|  |--3--|   
  E  E  E  E  E  E  E  E  E  E  E  E   
--------------------------------------|
--------------------------------------|
--------------------------------------|
--5--5--5--5--5--5--3--3--3--3--3--3--|


  |--3--|  |--3--|  |--3--|  |--3--|   
  E  E  E  E  E  E  E  E  E  E  E  E   
--------------------------------------|
--------------------------------------|
--------------------------------------|
--8--8--8--8--8--8--7--7--7--7--7--7--|


  |--3--|  |--3--|  |--3--|  |--3--|     Choir Section 1                       
  E  E  E  E  E  E  E  E  E  E  E  E     Q    E  E  Q    E  E   
--------------------------------------|------------------------|
--------------------------------------|------------------------|
--4--4--4--4--4--4--5--5--5--5--5--5--|--1----1--1--1----1--1--|
--------------------------------------|------------------------|


  Q    E  E  Q    E  E     Q    E  E  Q    E  E     Q    Q    Q    Q     
------------------------|------------------------|----------------------|
------------------------|------------------------|----------------------|
--1----1--1--1----1--1--|------------------------|-----------------0----|
------------------------|--0----0--0--0----0--0--|--0----2----3---------|


  Q    E  E  Q    E  E     Q    E  E  Q    E  E     Q    E  E  Q    E  E   
------------------------|------------------------|------------------------|
------------------------|------------------------|------------------------|
--1----1--1--1----1--1--|--1----1--1--1----1--1--|--0----0--0--0----0--0--|
------------------------|------------------------|------------------------|

			Sweep Riff
                         |--3--|  |--3--|  |--3--|  |--3--|   
  Q    Q    Q    Q       E  E  E  E  E  E  E  E  E  E  E  E   
----------------------|--------------------------------------|
----------------------|--------------------------------------|
--0-------------------|--------------------------------------|
-------5----3----2----|--0--0--0--0--0--0--3--3--3--3--3--3--|


  |--3--|  |--3--|  |--3--|  |--3--|   
  E  E  E  E  E  E  E  E  E  E  E  E   
--------------------------------------|
--------------------------------------|
--------------------------------------|
--5--5--5--5--5--5--3--3--3--3--3--3--|


  |--3--|  |--3--|  |--3--|  |--3--|   
  E  E  E  E  E  E  E  E  E  E  E  E   
--------------------------------------|
--------------------------------------|
--------------------------------------|
--8--8--8--8--8--8--7--7--7--7--7--7--|


  |--3--|  |--3--|  |--3--|  |--3--|   
  E  E  E  E  E  E  E  E  E  E  E  E   
--------------------------------------|
--------------------------------------|
--4--4--4--4--4--4--5--5--5--5--5--5--|
--------------------------------------|


  |--3--|  |--3--|  |--3--|  |--3--|   
  E  E  E  E  E  E  E  E  E  E  E  E   
--------------------------------------|
--------------------------------------|
--------------------------------------|
--0--0--0--0--0--0--3--3--3--3--3--3--|


  |--3--|  |--3--|  |--3--|  |--3--|   
  E  E  E  E  E  E  E  E  E  E  E  E   
--------------------------------------|
--------------------------------------|
--------------------------------------|
--5--5--5--5--5--5--3--3--3--3--3--3--|


  |--3--|  |--3--|  |--3--|  |--3--|   
  E  E  E  E  E  E  E  E  E  E  E  E   
--------------------------------------|
--------------------------------------|
--------------------------------------|
--8--8--8--8--8--8--7--7--7--7--7--7--|


  |--3--|  |--3--|  |--3--|  |--3--|     Choir Section 2                       
  E  E  E  E  E  E  E  E  E  E  E  E     Q    E  E  Q    E  E   
--------------------------------------|------------------------|
--------------------------------------|------------------------|
--4--4--4--4--4--4--5--5--5--5--5--5--|--1----1--1--1----1--1--|
--------------------------------------|------------------------|


  Q    E  E  Q    E  E     Q    E  E  Q    E  E     Q    Q    Q    Q     
------------------------|------------------------|----------------------|
------------------------|------------------------|----------------------|
--1----1--1--1----1--1--|------------------------|-----------------0----|
------------------------|--0----0--0--0----0--0--|--0----2----3---------|


  Q    E  E  Q    E  E     Q    E  E  Q    E  E     Q    E  E  Q    E  E   
------------------------|------------------------|------------------------|
------------------------|------------------------|------------------------|
--1----1--1--1----1--1--|--1----1--1--1----1--1--|--0----0--0--0----0--0--|
------------------------|------------------------|------------------------|

			Clean Riff
  Q    Q    Q    Q       W                   W                 
----------------------|-------------------|-------------------|
----------------------|-------------------|-------------------|
--0-------------------|-------------------|-------------------|
-------5----3----2----|--0----------------|--L----------------|


  W                   W                   W                 
-------------------|-------------------|-------------------|
-------------------|-------------------|-------------------|
-------------------|-------------------|-------------------|
--0----------------|--L----------------|--0----------------|


  W                   W                   W                 
-------------------|-------------------|-------------------|
-------------------|-------------------|-------------------|
-------------------|-------------------|-------------------|
--L----------------|--0----------------|--L----------------|

  Outro
  E  E  Q    Q.     E     E  E  H        Q       E  E  Q    Q    E   E   
-----------------------|----------------------|-------------------------|
-----------------------|----------------------|-------------------------|
-----------------------|----------------------|-------------------------|
--0-----0----L------7--|-----7--7--------7----|--8-----8----L----8--10--|


  E   E   H         Q       E  E  Q    Q.     E     E  E  H        Q     
-------------------------|-----------------------|----------------------|
-------------------------|-----------------------|----------------------|
-------------------------|-----------------------|----------------------|
-----10--10--------10----|--0-----0----L------7--|-----7--7--------7----|


  E  E  Q    Q    E   E     E   E   H         Q       H        H         
-------------------------|-------------------------|--------------------|
-------------------------|-------------------------|--------------------|
-------------------------|-------------------------|--8--------3--------|
--8-----8----L----8--10--|-----10--10--------10----|--------------------|


  E  E  Q    Q.     E     E  E  H        Q       E  E  Q    Q.     E   
-----------------------|----------------------|-----------------------|
-----------------------|----------------------|-----------------------|
--1-----1----L------1--|-----1--1--------1----|--0-----0----L------0--|
-----------------------|----------------------|-----------------------|


  E  E  Q    Q    Q       E  E  Q    Q.     E     E  E  H        Q     
-----------------------|-----------------------|----------------------|
-----------------------|-----------------------|----------------------|
-----0--0----0----0----|-----------------------|----------------------|
-----------------------|--0-----0----L------7--|-----7--7--------7----|


  E  E  Q    Q    E   E     E   E   H         Q     
-------------------------|-------------------------|
-------------------------|-------------------------|
-------------------------|-------------------------|
--8-----8----L----8--10--|-----10--10--------10----|


  E  E  Q    Q.     E     E  E  H        Q       E  E  Q    Q    E   E   
-----------------------|----------------------|-------------------------|
-----------------------|----------------------|-------------------------|
-----------------------|----------------------|-------------------------|
--0-----0----L------7--|-----7--7--------7----|--8-----8----L----8--10--|


  E   E   H         Q       H        H           E  E  Q    Q.     E   
-------------------------|--------------------|-----------------------|
-------------------------|--------------------|-----------------------|
-------------------------|--8--------3--------|--1-----1----L------1--|
-----10--10--------10----|--------------------|-----------------------|


  E  E  H        Q       E  E  Q    Q.     E     E  E  Q    Q    Q     
----------------------|-----------------------|-----------------------|
----------------------|-----------------------|-----------------------|
-----1--1--------1----|--0-----0----L------0--|-----0--0----0----0----|
----------------------|-----------------------|-----------------------|


  W                   W                   W                 
-------------------|-------------------|-------------------|
-------------------|-------------------|-------------------|
-------------------|-------------------|-------------------|
--0----------------|--L----------------|--0----------------|


  W                   W                   W                 
-------------------|-------------------|-------------------|
-------------------|-------------------|-------------------|
-------------------|-------------------|-------------------|
--L----------------|--0----------------|--L----------------|


  W                   W                   W                 
-------------------|-------------------|-------------------|
-------------------|-------------------|-------------------|
-------------------|-------------------|-------------------|
--0----------------|--L----------------|--0----------------|


  W                   W                   W                 
-------------------|-------------------|-------------------|
-------------------|-------------------|-------------------|
-------------------|-------------------|-------------------|
--L----------------|--L----------------|--L----------------|


-------------------||
-------------------||
-------------------||
-------------------||




Duration Legend
---------------
W - whole
H - half
Q - quarter
E - 8th
S - 16th
T - 32nd
X - 64th
. - note dotted
|-n-|  - n-tuplets


Tablature Legend
----------------
L - tied note
x - dead note
g - grace note
(n) - ghost note
> - accentuded note
NH - natural harmonic
AH - artificial harmonic
TH - tapped harmonic
SH - semi harmonic
PH - pitch harmonic
h - hammer on
p - pull off
b - bend
br - bendRelease
pb - preBend
pbr - preBendRelease
brb - bendReleaseBend
\n/ - tremolo bar dip
\n - tremolo bar dive
-/n - tremolo bar Release up
/n\ - tremolo bar inverted dip
/n - tremolo bar return
-\n - tremolo bar Release down
S - shift slide
s - legato slide
/ -  slide into from below or out of upwards
\ -  slide into from above or out of downwards
~ - vibrato
W - wide vibrato
tr - trill
TP - tremolo picking
T - tapping
S - slap
P - pop
< - fade in
^ - brush up
v - brush down

            
            
Suggest correction
Creating personal tab
Creating personal tab
You can edit any tab online and save it as your Personal.

You can edit, replace or remove any tab part or add personal notes – all changes will be seen only by you.

Personal tabs can be accessed anytime from any device, even offline.
Learn more »
Give kudos to tab author, rate the tab!
1 2 3 4 5
comments
print report bad tab
2 comments total.
0 reply
AFbass 10 May 27, 2010 04:38 PM

It goes way faster tho

0 reply
metallicamadmik 72 Feb 01, 2011 03:58 PM

The bass is definitely playing something way more crazy during the bridge

guest
You may want to rate the tab now too:
select rating
Wanna post a correction for this tab? Suggest correction