Oops, an error
Loading. Please wait.

Victim tab

version 1
version 1

Whole song

161,062 views 117 this week
24 commentsread comments
1 2 3 4 5
x 40
add to favorites
×
Save as Personal and add changes to this tab that will be seen only by you. Learn more ›
×
You can save this tab as Personal to edit and correct it or add notes. All changes will be seen only by you. Learn more »
launch autoscroll
font size
0
reset
how to read this tab
guitar tuner
backing track
0:00
0:00
edit
Autoscroll
slow
fast
+/-
esc
set tempo
stop
Author
Difficulty
intermediate
Song: Victim
Artist: Avenged Sevenfold
Album: Nightmare (2010)
Tabbed by: shah
Standard tuning

i didnt include the fills in the verses


[Intro]
                                                
e|--------------------------------------------------------------------------|
B|---------6--4--3----------------6--4--3-----3h4p3-------------------------|
G|-------5----------------------5-------------------3-----------------------| x2
D|-----5----------------5-----5---------------------------------------------|
A|-3----------------------3-------------------------------------------------|
E|---3----------------------3-----------------------------------------------|

0:33 D#                                               Cm
e|------------------------------------------------------------------------------------------|
B|--8----8-9-8-------8-9-11--9-8---8-9-11-------------4----4---4---4---4--------6p4-6p4---4-|
G|--8----8-----8-----8-------------8------------------5----5-5-----5-5------------------5---|
D|--8------------8------------------------------------5----5-------5------------------------|
A|--6-------------------------------------------------3----3-------3------------------------|
E|------------------------------------------------------------------------------------------|

    D#                                          repeat intro...
e|----------------------------------------------------8---------------------|
B|--9p8-----9p8-9-8-------------4/-8----------------------------------------|
G|--8--------------------------------------------5/8------------------------|
D|--8-----------------------------------------------------------------------|
A|--6-----------------------------------------------------------------------|
E|--------------------------------------------------------------------------|

guitar 2 0:59                                 1:05
e|--8/10---10\8-------------------------------------8-------10---------11---|
B|--------------------------------------------------------------------------|
G|--5/7----7\5----------------------------------8-8---8-8/10---10-10/12-----|
D|--------------------------------------------------------------------------|
A|--------------------------------------------------------------------------|
E|--------------------------------------------------------------------------|

 
chords in verse
C G# C G#
Bb G# Bb G#


[Verse]

C                        G#
  House full of roses A letter on the stairs

C                           G#
I tape all of messages  For anyone who cares

Bb                       G#
Closure broken words And stories full of tears

Bb                          G#
Remembering your life Cause we wish you were here

(repeat chords)


[Chorus]

And some say this can't be real           And i've lost my power to feel, 
e|---------------------------------------------------------------------------|
B|---------------------------------------------------------------------------|
G|---5-5----5-5-5-5-5---5-5-5-5-5-5-5-5-5---5-5-5-5-5---5-5-5-5-5-5-5--------|
D|---5-5----5-5-5-5-5---5-5-5-5-5-5-5-5-5---5-5-5-5-5---5-5-5-5-5-5-5--------|
A|---3-5----3-3-3-3-3---3-3-3-3-3-3-3-3-3---3-3-3-3-3---3-3-3-3-3-3-3--------|
E|---------------------------------------------------------------------------|

tonight                We are all just victims of a crime
e|---------------------------------------------------------------------------|
B|---------------------------------------------------------------------------|
G|---3-3----3-3-3-3-3---3-3-3-3-3-3-3-8---8----------------------------------|
D|---3-3----3-3-3-3-3---3-3-3-3-3-3-3-8---8---x-5---5-5-5-5-5-5--------------|
A|---1-1----1-1-1-1-1---1-1-1-1-1-1-1-6---6---x-5---5-5-5-5-5-5--------------|
E|--------------------------------------------x-3---3-3-3-3-3-3--------------|


When all is gone and can't be regained    We can't seem to shelter the pain
e|---------------------------------------------------------------------------|
B|---------------------------------------------------------------------------|
G|---5-5----5-5-5-5-5---5-5-5-5-5-5-5-5-5---5-5-5-5-5---5-5-5-5-5-5-5--------|
D|---5-5----5-5-5-5-5---5-5-5-5-5-5-5-5-5---5-5-5-5-5---5-5-5-5-5-5-5--------|
A|---3-5----3-3-3-3-3---3-3-3-3-3-3-3-3-3---3-3-3-3-3---3-3-3-3-3-3-3--------|
E|---------------------------------------------------------------------------|

 inside             We are all just victims of a crime
e|---------------------------------------------------------------------|
B|---------------------------------------------------------------------|
G|---3-3----3-3-3-3-3---3-3-3-3-3-3-3-8---8----------------------------|
D|---3-3----3-3-3-3-3---3-3-3-3-3-3-3-8---8---x-5----------------------|
A|---1-1----1-1-1-1-1---1-1-1-1-1-1-1-6---6---x-5----------------------|
E|--------------------------------------------x-3----------------------|

 
guitar 1 
e|------------------------------|
B|---------6--4--3--------------|
G|-------5----------------------|
D|-----5------------------------|
A|-3----------------------------|
E|---3--------------------------|

guitar 2
e|---------8--------10---------12---------------|
B|----------------------------------------------|
G|-----8-8---8-8/10---10-10/12------------------|
D|----------------------------------------------|
A|----------------------------------------------|
E|----------------------------------------------|

*repeat verse*
*repeat chorus*


guitar 1 (during solo) listen for strumming pattern
e|-------------------------------------------------------------------|
B|-------------------------------------------------------------------|
G|--5---5--xx-3-5---5------------------------------------------------|
D|--5---5--xx-3-5---5---5-7-8-7-5-------------6---6--xx-6----6-6-----|
A|--3---3--xx-1-3---3---3-5-6-5-3-5-/8---6--x-6---6--xx-6----6-6-----|
E|--------------------------------3-/6---4--x-4---4--xx-4----4-4-----|


e|-------------------------------------------------------------------|
B|-------------------------------------------------------------------|
G|---------------------------------5---5--xx-3-5--5---5---3-5-8---5--|
D|-x--3--3--x-3-3--x-3--xx-3-3-x---5---5--xx-3-5--5---5---3-5-8---5--|
A|-x--3--3--x-3-3--x-3--xx-3-3-x---3---3--xx-1-3--3---3---1-3-6---3--|
E|-x--1--1--x-1-1--x-1--xx-1-1-x-------------------------------------|

guitar 2 first solo
e|-----------------------------------------------------------------------------------|
B|--12b13~~~~---13-15-16-15-13-------------------------------------------------------|
G|-----------------------------12-13/15-13-----\8---10---12---13-12-10-12-10----10---|
D|---------------------------------------------------------------------------13------|
A|-----------------------------------------------------------------------------------|
E|-----------------------------------------------------------------------------------|


e|-------------------------------------------------------------------------------|
B|--------13-16-18b20~~--b21-18-13-16b18---13h16p13----13------------------------|
G|--------------------------------------------------15----15-12-------15b17--b17~|
D|--13-15-------------------------------------------------------15-13------------|
A|-------------------------------------------------------------------------------|
E|-------------------------------------------------------------------------------|

e|--------------15-16-15---------------15-16-15---------------15-16-18b20~~~~~--|
B|-----15-16-18---------------15-16-18---------------15-16-18-------------------|
G|--17---------------------17---------------------17----------------------------|
D|------------------------------------------------------------------------------|
A|------------------------------------------------------------------------------|
E|------------------------------------------------------------------------------|


Cm                  G#                           D#
   nothing lasts forever for all good things its true 
                    G                     Cm
id rather trade it all  somehow saving you 
                   G#                          D#
must have been the season that threw us out of line 
                G                              D#
once i stood so tall now im searching for a sign 


                  Bb                          Cm
so dont need your salvation with promises and kind 
                    G#                           D#
and all those speculation save it for another time 
                    Bb                      Cm
cause we all need a reason a reason just to stay
                       G#                                   Cm
well some just cant be bothered to stick around another day 


[Pre-Solo]

guitar 2
e|--------------------|
B|--------------------|
G|---5~---------------|
D|---5~---------------|
A|---3~---------------| repeat 4x
E|--------------------|


guitar 1
e|---------------|----------------|-----------------|------------------|
B|--6--4--3~-----|-3-3--6--4--3---|--3-3--6--4--3---|--3--6--4--3------|
G|---------------|-5-5------------|--5-5------------|--5---------------|
D|---------------|-5-5------------|--5-5------------|--5---------------|
A|---------------|----------------|-----------------|------------------|
E|---------------|----------------|-----------------|------------------|


guitar 1 chords (during solo) listen for strumming pattern
e|---------------------------------------------------------------------|
B|---------------------------------------------------------------------|
G|--8-----------------------5------------------------------------------|
D|--8-----------8-----------5-------------6----------------------------|
A|--6-----------8-----------3-------------6----------------------------|
E|--------------6-------------------------4----------------------------| repeat


guitar 2 solo
e|---------------------------------------------------------------------|
B|--15-b16-b16~--16r15---16-------------------16-----------------------|
G|--------------------------15---12---15b17-------b17-15-12-15b17r15---|
D|---------------------------------------------------------------------|
A|---------------------------------------------------------------------|
E|---------------------------------------------------------------------|

e|---------------------------------------------------------------------------18-------------------|
B|--------------------------------------------------/11-11---9--/16~---18b20------b20r18--16------|
G|--10b12r10b12~~--8----8---10-8-10b12---8----8----------------------------------------------15---|
D|-------------------10--------------------10-----------------------------------------------------|
A|------------------------------------------------------------------------------------------------|
E|------------------------------------------------------------------------------------------------|

e|-------------------------------------------------------------------------------|
B|--20-16-15-20-15-16-15---------------------------------------------------------|
G|-----------------------15-19\15----15------15----------------------------------|
D|--------------------------------17----17-15------17----------------------------|
A|----------------------------------------------18----18-17-18-17----------------|
E|----------------------------------------------------------------18-13-11/15----|


e|---------------------------------------------------------------------|
B|---------------------------------------------------------------------|
G|--------------------------------15-------17-------19~---b20r19-17----|
D|--/13-12---13-12-13/15-----8/12----12/15----15/17--------------------|
A|---------------------------------------------------------------------|
E|---------------------------------------------------------------------|

e|-------15-18-b20--15------------------15-18-b20--r18p16p15-16b18-r16-16---18-----------15--16-15~|
B|----16---------------16------------16------------------------------------------16--18------------|
G|-17---------------------15-17~--17---------------------------------------------------------------|
D|-------------------------------------------------------------------------------------------------|
A|-------------------------------------------------------------------------------------------------|
E|-------------------------------------------------------------------------------------------------|

*repeat chorus*

  im missin you....(capo on 3rd fret)       x4
e|--------------------------|
B|---------3--1--0----------|
G|-------2------------------|
D|-----2------------------2-|
A|-0------------------------|
E|---0----------------------|

(capo on 3rd fret) 
e|---------------------------------------------------------------------------------------------|
B|--0h1p0-----------1----------------1---------------1---------------1---------------1---------|
G|--------0-----0-----0----------0-----0---0-----0-----0---------0-----0---------2-----2-------|
D|------------2---2-----2------2---2-----2-----2---2-----2-----2---2-----2-----2---2-----2-----|
A|----------3-------------3------------------3-------------3---------------3-0-------------3-0-|
E|---------------------------------------------------------------------------------------------|

e|-------------------------------------------------------------------------------------------------|
B|------0---------------1-------3-------1---------------1--------------1--------------1-----3-----1|
G|--2-----2---------2-----2---2---2---2---2---------0-----0--------0-----0---0-----0----0-----0----|
D|2---2-----2-----2---2-----2-------2-------2-----2---2-----2----2---2-----2-----2---2----2-----2--|
A|------------3-0-----------------------------0-3-------------3----------------3-------------------|
E|-------------------------------------------------------------------------------------------------|


e|-------------------------------------------------------------------------------------------------|
B|--1---------------1-------0-------0-------1-------1-------3-------3-------5-------5-------6------|
G|0---0---------2-----2-------2-------2-------2-------2-------2-------2-------5-------5-------5----|
D|------2-----2---2-----2-------2-------2-------2-------2-------2-------2-------5-------5-------5--|
A|--------3-0-------------0-------0-------0-------0-------0-------0-------0-------3-------3-------3|
E|-------------------------------------------------------------------------------------------------|


e|--------------------------------------------0---0---------------3-----------0---0---------------|
B|6-------5-------5-------3-------1-----------1-1---1---1-----3-----3---3-------1-1-1-0-1-3-0-----|
G|--5-------5-------5-------0---0---0---0---2---------2-----4---4-----4-4---2-------------4---2---|
D|----5-------5-------5-------2-------2-----------------------------------------------------------|
A|------3-------3-------3-----------------0---------------0---------------0---------------------0-|
E|------------------------------------------------------------------------------------------------|


e|--------0-------0-------1-------1-------3-------3-------|
B|3-0-----1-1-----1-1-----1-------1-------3-------3-------|
G|4---2-------0-------0-----0-------0-------0-------0-----|
D|--------------2-------2-----0-------0-------0-------0---|
A|------0-----------------------3-------3-------3-------3-|
E|--------------------------------------------------------|



e|----------------------|
B|---5-3---5-3---3-5-1~-|
G|---5-4-4-5-4-4-4-5-2~-|
D|-------5-----5--------|
A|----------------------|
E|----------------------|



************************************

| x  Dead note
| h  Hammer-on
| p  Pull-off
| r  Release
| b  Bend
| /  Slide up
| \  Slide down
| ~  Vibrato

************************************

            
            
Suggest correction
Creating personal tab
Creating personal tab
You can edit any tab online and save it as your Personal.

You can edit, replace or remove any tab part or add personal notes – all changes will be seen only by you.

Personal tabs can be accessed anytime from any device, even offline.
Learn more »
comments
print report bad tab
24 comments total. Showing first comments. show 1 bad comment
0 reply
Too56Fast 10 Aug 05, 2010 06:29 PM

hey man i just wonna say this tab is f***ing amazing good work!!! I love this solo im so happy i can learn it now thx!!!!

+2 reply
slash_5150 138 Aug 05, 2010 10:00 PM

^for the second chord in the chorus, im still hearing the C power chord. i think the G# note is from the bass..?..
anyway u can play it however u think its played. :)

guest
You may want to rate the tab now too:
select rating
Wanna post a correction for this tab? Suggest correction