Oops, an error
Loading. Please wait.
We have an official Welcome To The Family tab made by UG professional guitarists. Check out the tab »
×
34,432 views 9 this week
2 commentsread comments
1 2 3 4 5
x 13
add to favorites
×
Save as Personal and add changes to this tab that will be seen only by you. Learn more ›
×
You can save this tab as Personal to edit and correct it or add notes. All changes will be seen only by you. Learn more »
launch autoscroll
font size
0
reset
guitar tuner
backing track
0:00
0:00
edit
Autoscroll
slow
fast
+/-
esc
set tempo
stop
Artist - Avenged Sevenfold
Album - Nightmare
Track - Welcome To The Family
Tuning - Dropped D (DADG)

NB - (n) notes inside parentheses are optional 
   - where two 'o' are used, repeat between

Intro
G|---------------------------------|
D|---------------------------------|
A|---------------------------------|
D|---------------------------------| x3

Verse 1
G|---------------------------------|---------------------------------|
D|o--------------------------------|---------------------------------|
A|o--------------------------------|---------------------------------|
D|-0---0-0-0/8-\-7---0-0-0/5-\-8---|-0---0---0-0-0-3-5-3-2-3-2-0-----|

G|---------------------------------|---------------------------------|
D|---------------------------------|--------------------------------o|
A|---------------------------------|--------------------------------o|
D|-0---0-0-0/8-\-7---0-0-0/5-\-8---|-0---0---0-0-3-----2-----7-------| 

Pre Chorus
G|---------------------------------|---------------------------------|
D|o--------------------------------|--------------------------------o|
A|o--------------------------------|--------------------------------o|
D|-8---8-----8-8-8-7---7-7---7-7-7-|(8-8-7-7-8-8-7-7-8-8-3-5-3-2-3-2)|

G|---------------------------------|---------------------------------|
D|---------------------------------|---------------------------------|
A|---------------------------------|---------------------------------|
D|-8---8-----8-8-8-8-8-8-8-8-8-8-8-|-7---7-----7-7-7-7-7-7-7-7-7-7-7-|

G|---------------------------------|
D|---------------------------------|
A|---------------------------------|
D|-7-------5-------3---------------|

Chorus                              
G|---------------------------------|---------------------------------|    
D|---------------------------------|---------------------------------|   
A|---------------------------------|---------------------------------|    
D|-0---0-----0-0---8---8-----8-8---|-3---3-----3-3---2---2-----2-2---|   
                                       
G|---------------------------------|---------------------------------|
D|---------------------------------|---------------------------------|
A|---------------------------------|-----------------4-4-4-4-4-4-4-4-|
D|-0---0-----0-0---8---8-----8-8---|-3---3-----3-3-------------------|

G|---------------------------------|---------------------------------|    
D|---------------------------------|---------------------------------|   
A|---------------------------------|---------------------------------|    
D|-0---0-----0-0---8---8-----8-8---|-3---3-----3-3---2---2-----2-2---|   
                                       
G|---------------------------------|---------------------------------|
D|---------------------------------|---------------------------------|
A|---------------------------------|---------------------------------|
D|-0---0-----0-0---8---8-----8-8---|-7-------5-------3---------------|

Verse 2
G|---------------------------------|---------------------------------|
D|o--------------------------------|---------------------------------|
A|o--------------------------------|---------------------------------|
D|-0---0-0-0/8-\-7---0-0-0/5-\-8---|-0---0---0-0-0-3-5-3-2-3-2-0-----|

G|---------------------------------|---------------------------------|
D|---------------------------------|--------------------------------o|
A|---------------------------------|--------------------------------o|
D|-0---0-0-0/8-\-7---0-0-0/5-\-8---|-0---0---0-0-3-----2-----7-------| 

Pre Chorus
G|---------------------------------|---------------------------------|
D|o--------------------------------|--------------------------------o|
A|o--------------------------------|--------------------------------o|
D|-8---8-----8-8-8-7---7-7---7-7-7-|(8-8-7-7-8-8-7-7-8-8-3-5-3-2-3-2)|

G|---------------------------------|---------------------------------|
D|---------------------------------|---------------------------------|
A|---------------------------------|---------------------------------|
D|-8---8-----8-8-8-8-8-8-8-8-8-8-8-|-7---7-----7-7-7-7-7-7-7-7-7-7-7-|

G|---------------------------------|
D|---------------------------------|
A|---------------------------------|
D|-7-------5-------3---------------|

Chorus                                                            
G|---------------------------------|---------------------------------|    
D|---------------------------------|---------------------------------|   
A|---------------------------------|---------------------------------|    
D|-0---0-----0-0---8---8-----8-8---|-3---3-----3-3---2---2-----2-2---|   
                                       
G|---------------------------------|---------------------------------|
D|---------------------------------|---------------------------------|
A|---------------------------------|-----------------4-4-4-4-4-4-4-4-|
D|-0---0-----0-0---8---8-----8-8---|-3---3-----3-3-------------------|

G|---------------------------------|---------------------------------|    
D|---------------------------------|---------------------------------|   
A|---------------------------------|---------------------------------|    
D|-0---0-----0-0---8---8-----8-8---|-3---3-----3-3---2---2-----2-2---|   
                                       
G|---------------------------------|---------------------------------|
D|---------------------------------|---------------------------------|
A|---------------------------------|---------------------------------|
D|-0---0-----0-0---8---8-----8-8---|-7-------5-------3---------------|

Breakdown
G|---------------------------------|---------------------------------|
D|---------------------------------|---------------------------------|
A|---------------------------------|---------------------------------|
D|-0000---0000-------0000---0000---|--0000---0000-------0000---0000--|
 
G|---------------------------------|
D|---------------------------------|
A|---------------------------------|
D|-000000000000000000000000--------|

Solo
G|---------------------------------|---------------------------------|
D|o--------------------------------|--------------------------------o|
A|o--------------------------------|--------------------------------o|
D|-8---8-----8-8-8-7---7-7---7-7-7-|-0000000000000000000-3-3-2-2-1-1-| x4

G|---------------------------------|---------------------------------|
D|---------------------------------|---------------------------------|
A|---------------------------------|---------------------------------|
D|-8---8-----8-8-8-8-8-8-8-8-8-8-8-|-7---7-----7-7---7-7-7-7-7-7-7-7-|

G|---------------------------------|--------------------|
D|---------------------------------|--------------------|
A|---------------------------------|--------------------|
D|-8---8-----8-8-8-8-8-8-8-8-8-8-8-|-7---7-5---5-3---2--|

Bridge
G|---------------------------------|---------------------------------|
D|---------------------------------|---------------------------------|
A|---------------------------------|---------------------------------|
D|-0--------0-------0-0------------|-2--------2-------2-2------------|

G|---------------------------------|---------------------------------|
D|---------------------------------|---------------------------------|
A|---------------------------------|-1--------1-------1-1------------|
D|-3--------3-------3-3------------|---------------------------------|

G|---------------------------------|---------------------------------|
D|o--------------------------------|---------------------------------|
A|o1--------1-------1-1------------|-3--------3-------3-3------------|
D|---------------------------------|---------------------------------|

G|---------------------------------|---------------------------------|
D|---------------------------------|--------------------------------o|
A|---------------------------------|-1--------1-------1-1-----------o|
D|-3--------3-------3-3------------|---------------------------------|

G|---------------------------------|---------------------------------|
D|---------------------------------|---------------------------------|
A|-1--------1-------1-1------------|-3--------3-------3-3------------|
D|---------------------------------|---------------------------------|

G|---------------------------------|---------------------------------|
D|---------------------------------|---------------------------------|
A|---------------------------------|-----------------3------3------3-|
D|-3------3------3-2------2------2-|-0------0------0-----------------|

Pre Chorus (Play either optional note, personally I think the Bb [3] sounds better)
G|----(3)-----(3)-----(3)-----(3)--|---------------------------------|
D|---------------------------------|---------------------------------|
A|-1-1(1)--1-1(1)--1-1(1)--1-1(1)--|-0-0-0-0-0-0-0-0-0-0-0-0-0-------|
D|---------------------------------|---------------------------------|

Chorus                              
G|---------------------------------|---------------------------------|    
D|---------------------------------|---------------------------------|   
A|---------------------------------|---------------------------------|    
D|-0---0-----0-0---8---8-----8-8---|-3---3-----3-3---2---2-----2-2---|   
                                       
G|---------------------------------|---------------------------------|
D|---------------------------------|---------------------------------|
A|---------------------------------|-----------------4-4-4-4-4-4-4-4-|
D|-0---0-----0-0---8---8-----8-8---|-3---3-----3-3-------------------|

G|---------------------------------|---------------------------------|    
D|---------------------------------|---------------------------------|   
A|---------------------------------|---------------------------------|    
D|-0---0-----0-0---8---8-----8-8---|-3---3-----3-3---2---2-----2-2---|   
                                       
G|---------------------------------|---------------------------------|
D|---------------------------------|---------------------------------|
A|---------------------------------|---------------------------------|
D|-0---0-----0-0---8---8-----8-8---|-7---7---7---7---5---5---5---5---|

G|---------------------------------|
D|---------------------------------|
A|---------------------------------|
D|-3---3---3---3---2---2---2---2---|

Outro
G|---------------------------------|---------------------|
D|o--------------------------------|--------------------o|
A|o--------------------------------|--------------------o|
D|-0000---0000-------0000---0000---|--0000---00003---6---| x4

            
            
Suggest correction
Creating personal tab
Creating personal tab
You can edit any tab online and save it as your Personal.

You can edit, replace or remove any tab part or add personal notes – all changes will be seen only by you.

Personal tabs can be accessed anytime from any device, even offline.
Learn more »
comments
print report bad tab
2 comments total.
0 reply
fender4string 569 Aug 08, 2010 04:05 PM

Decent tab but to my ears your chorus is incorrect (listen to it carefully), you didn't transcribe enough notes in the little run in the main riff, you're missing a major fill at the end of the first breakdown, and the breakdown at the end doesn't end with D|--3--6-- but D|--1--6--.

0 reply
nacho.rock.cabj 454 Apr 20, 2015 08:05 PM

Have you notice that when they play this live they tune Dropped C#?

guest
You may want to rate the tab now too:
select rating
Wanna post a correction for this tab? Suggest correction