Oops, an error
Loading. Please wait.

Mi Corazoncito bass

10,315 views 1 this week
no commentswrite comment
1 2 3 4 5
2 more votes to show rating
add to favorites
×
Save as Personal and add changes to this tab that will be seen only by you. Learn more ›
×
You can save this tab as Personal to edit and correct it or add notes. All changes will be seen only by you. Learn more »
launch autoscroll
font size
0
reset
guitar tuner
edit
Autoscroll
slow
fast
+/-
esc
set tempo
stop
Author
Difficulty
pretty sure about most of these notes. i got some of them from itsdavid14 on 
youtube. standard tuning.
creo que la mayoría de estas notas estan correctas.

mi corazoncito esta de luto por tu amor.....

G||----------------------------6--------------|
D||-------------9~-7~----6--4-4-4-------------|
A||-9-9--9---9--7~-5~-4-4-4----------9-7------|
E||-----9-7-7-7-------------------7-7-7-------|

no le digas a nadie...

G||-----------------------------------11-----|
D||----------------------6-6-6----11-9--9----|
A||-----11-------7-----9----4------------11--|
E||-\9-9--9-7-5-5-5-7-7-7------4-9---------5-|

no se lo comente al pueblo

G||----------------6~-6~---------|
D||-----------6-6-6~-6~----------|
A||--7-----9-----6---------7-----|
E||-5-5-7-7-7-----------9-9--9\5-|

que tu vida es mi vida

G||--------------------|--11~-9~--7~--6~--8h9-8h9-8h9-8h9-|
D||---------9-7--------|----------------------------------|
A||--7-----9---9----7--|----------------------------------|
E||-5-5-7-7------5-5-5-|-9~--7~--5~--4~-------------------|

dejenme sonar

G||-------------------------P11--P11--------P9--|
D||-----------------6-6-6-----------------------|
A||----11-----7---9----6------------------------|    
E||-9-9--9\5-5-7-7-7------S9---S9------S9-S9----|

yo soy el poeta

G||--------------------------11-11------| (those are eleven not ones)
D||-----------6-6-6--11-11-11-----------| (esos son once no uno)
A||--7-----9-----6----------------------|
E||-5-5-7-7-7-------9~~~----------------|

Que importa que en mi mente

G||-------------------------------------|
D||-----------6-6-6---10h11-10h11-------|
A||--7-----9-----6----------------------|
E||-5-5-7-7-7-------9~------------------|

que el corazoncito es mio

G||-------------------9-9-9-11-9---|
D||-----------6-6-6----------------|
A||--7-----9-----6-----------------|
E||-5-5-7-7-7-------9~-------------|

(bridge to second verse)

G||----------------9-7-|----------------9-9-7--|
D||-9~--9-9~--9-7------|-9~-9-9~--9-7----------|
A||-7~--7-7~-7----7----|-7~-7-7~-7----7--------|
E||--------------------|-----------------------|

es el chico de las poesias

G||---P11--P9--P7--P6/7-|---P11--P9--P7--P6/7-P7-P7-P7-P7--|
D||---------------------|----------------------------------|
A||---------------------|----------------------------------|
E||-S9---S7--S5--S4-----|-S9---S7--S5--S4------------------|

G||---7----9--11-------------| do this 4 times
D||-----------------11-------| haz esta parte 4 veces
A||---------------11--11-----|
E||-\5~-7-7~-9~-9~-----------|

then this
luego esto

G||-----P11---------------|
D||---11------------------|
A||-11------------7-------|
E||--------5-5-7-7--------|

no le digas a nadie

G||--------------------------9-11-9--|
D||------------------6-6-6-----------|
A||-----11-----7---9----6------------|    
E||-\9-9--9\5-5-7-7-7------9~--------|

no se lo comente al pueblo

G||-----------------8~-8~-8~-8/9----|
D||-------------6-6~-6~-6~----------|
A||----7-----9----------------------|
E||-5-5-5-7-7-7-------------9-------|

que tu vida es mi vida

G||-----------8-9-8-|---------11--9--7--6---|
D||-----------------|-----------------------|
A||----7------------|----7------------------|
E||-9\5-5-7-7-------|-5-5-5--9~-7~-5~-4~----|

hay asi es el

G||---11--9-7-----11-9-7-9-7--11-9-11-9---13-11-13-11-9-9-P9\-|
D||-----------------------------------------------------------|
A||-----------------------------------------------------------|
E||-9~--7~---9~~~~--7-------9~---------11~--------------------|

dejenme sonar

G||-------------------------9-11---------|
D||-----------------6-6-6----------------|
A||----11-----7---9----6-----------------|    
E||-9-9--9\5-5-7-7-7------9--------------|

yo soy el poeta

G||------------------P8-------------|
D||-----------6-6-6~~--------------|
A||--7-----9-----6-----------------|
E||-5-5-7-7-7----------------------|

Que importa que en mi mente

G||----------------8-8-----------|
D||-----------6-6-6-6------------|
A||--7-----9--------------11-----|
E||-5-5-7-7-7----------9-9--9\5--|

y que el corazoncito es mio mio

G||-------------------|----------|
D||-----------6-6-6---|--10h11---|
A||--7-----9-----6----|----------|
E||-5-5-7-7-7---------|-9--------|

henry Tell em 'es my heart

G||--------11-9---11-9-11-9----P9--|
D||-------------------------11-----|
A||----7---------------------------|
E||-5-5-5-9----9-9----9----9--9----|

let me find out

G||------------------------9-9-9-P9----|
D||-------------------6-6-6------------|
A||----11-----7-----9----6-------------|
E||\9-9--9\5-5-5-7-7-7-----------------|

yo soy el poeta

G||-----------------------------------|
D||-------------6-6-6-P6--P6-P6-P6----|
A||----7-----9-----6------------------|
E||-5-5-5-7-7-7-----------------------|

mio mio mio mio

G||---------------------------|----------------|
D||-------------6-6-6----9-7--|-----------9-7--|
A||----7-----9-----6----9---9-|----7-----9-----|
E||-5-5-5-7-7-7------7-7------|-5-5-5-7-7------|

no le digas a nadie




S= slap
P= pop
H= hammer on
\= slide down
/= slide up
~= let it ring

            
            
Suggest correction
Creating personal tab
Creating personal tab
You can edit any tab online and save it as your Personal.

You can edit, replace or remove any tab part or add personal notes – all changes will be seen only by you.

Personal tabs can be accessed anytime from any device, even offline.
Learn more »
Give kudos to tab author, rate the tab!
1 2 3 4 5
comments
print report bad tab
guest
You may want to rate the tab now too:
select rating
Wanna post a correction for this tab? Suggest correction