Oops, an error
Loading. Please wait.

I Could Be The One chords

version 5
version 5

Whole song

by Avicii
511 views 9 this week
no commentswrite comment
1 2 3 4 5
3 more votes to show rating
add to favorites
×
Save as Personal and add changes to this tab that will be seen only by you. Learn more ›
×
You can save this tab as Personal to edit and correct it or add notes. All changes will be seen only by you. Learn more »
launch autoscroll
font size
0
reset
transpose
0
reset
simplify chords
display chords
guitar tuner
edit
Autoscroll
slow
fast
+/-
esc
set tempo
stop
Author
Difficulty
Strumming
There is no strumming pattern for this song yet. and get +5 IQ
Avicii vs Nicky Romero - I Could Be The One

Note: You can switch out the F#m/B with Bm7.

[Intro]

D

[Verse 1]

F#m           A                   D 
Do you think about me when you're all alone?
    F#m/B             C#m            D
The things we used to do, we used to be?
F#m            A               D 
I could be the one to make you feel that way.
F#m/B          C#m           D
I could be the one to set you free.

F#m           A                D
Do you think about me when the crowd is gone?
   F#m/B         C#m           D
It used to be so easy, you and me.
F#m            A               D 
I could be the one to make you feel that way.
F#m/B          C#m           D
I could be the one to set you free.

[Hook 1]

F#m - A - D - E

F#m/B - C#m - D - E

With the lead:

     F#m          A            D   E           F#m/B         C#m          D     E
e|-------------10-9--------------------19-17-16-----------17-16------------------------------|
B|---10-------------10---------10---------------19--------------17--------19------------10---|
G|------11------------------11---------------------18------------------18----------9-11------|
D|-------------------------------------------------------------------------------------------|
A|-------------------------------------------------------------------------------------------|
E|-------------------------------------------------------------------------------------------|

     F#m          A            D    E          F#m/B         C#m          D     E
e|-------------10-9--------------------19-17-16-----------17-16--------------------12-9------|
B|---10-------------10---------10---------------19--------------17--------19------------12---|
G|------11------------------11---------------------18------------------18--------------------|
D|-------------------------------------------------------------------------------------------|
A|-------------------------------------------------------------------------------------------|
E|-------------------------------------------------------------------------------------------|

F#m            A               D         E
I could be the one to make you feel that way
F#m/B          C#m           D    E 
I could be the one to set you free
F#m            A               D         E
I could be the one to make you feel that way
F#m/B          C#m           D    E
I could be the one to set you free

After the last E of this part you can go to A and then hold F#m until the vocals begin in the second verse.

[Verse 2] 

F#m                             A
When you need a way to beat the pressure down
E                              D
When you need to find a way to breath
F#m                            A
I could be the one to make you feel that way
E                            D
I could be the one to set you free

F#m                            A    
If you want to see me when the crowd is gone
E                              D
Used to be so easy, can't you see?
F#m                            A
I could be the one to make you feel that way
E                            D
I could be the one to set you free

F#m                            A  
I could be the one to make you feel that way
E                            D
I could be the one to set you free
F#m                            A  
I could be the one to make you feel that way
E                            D
I could be the one to set you free

[Hook 2]

F#m - A - D - E

F#m/B - C#m - D - E

With the lead:

     F#m          A            D   E           F#m/B         C#m          D     E
e|-------------10-9--------------------19-17-16-----------17-16------------------------------|
B|---10-------------10---------10---------------19--------------17--------19------------10---|
G|------11------------------11---------------------18------------------18----------9-11------|
D|-------------------------------------------------------------------------------------------|
A|-------------------------------------------------------------------------------------------|
E|-------------------------------------------------------------------------------------------|

     F#m          A            D    E          F#m/B         C#m          D     E
e|-------------10-9--------------------19-17-16-----------17-16--------------------12-9------|
B|---10-------------10---------10---------------19--------------17--------19------------12---|
G|------11------------------11---------------------18------------------18--------------------|
D|-------------------------------------------------------------------------------------------|
A|-------------------------------------------------------------------------------------------|
E|-------------------------------------------------------------------------------------------|

F#m            A               D         E
I could be the one to make you feel that way
F#m/B          C#m           D    E 
I could be the one to set you free
F#m            A               D         E
I could be the one to make you feel that way
F#m/B          C#m           D    E    A
I could be the one to set you free



            
            
Suggest correction
Creating personal tab
Creating personal tab
You can edit any tab online and save it as your Personal.

You can edit, replace or remove any tab part or add personal notes – all changes will be seen only by you.

Personal tabs can be accessed anytime from any device, even offline.
Learn more »
Give kudos to tab author, rate the tab!
1 2 3 4 5
comments
print report bad tab
guest
You may want to rate the tab now too:
select rating
Wanna post a correction for this tab? Suggest correction