Oops, an error
Loading. Please wait.
69,695 views 30 this week
1 commentread comment
1 2 3 4 5
x 7
add to favorites
×
Save as Personal and add changes to this tab that will be seen only by you. Learn more ›
×
You can save this tab as Personal to edit and correct it or add notes. All changes will be seen only by you. Learn more »
launch autoscroll
font size
0
reset
transpose
0
reset
display chords
guitar tuner
edit
Autoscroll
slow
fast
+/-
esc
set tempo
stop
Strumming
There is no strumming pattern for this song yet. and get +5 IQ
G* [3 0 X X X X]

Capo 2nd

[Intro]

Am - F - C - C G
Am -G*F- C - C G


[Verse 1]

Am            F               C       C
   Feeling my way through the darkness
Am     G* F            C     C
   Guided by a beating heart
Am         F              C            C
   I can't tell where the journey will end
Am     G* F            C    C
   But I know where to start

Am              F       C             C
   They tell me I'm too young to understand
Am         G*  F               C     C
   They say I'm caught up in a dream
Am                 F             C            C
   Well, life will pass me by if I don't open up my eyes
Am        G*    F       C
   Well, that's fine by me


[Chorus]

C            Am      F        C     C
  So wake me up when it's all over
G        Am    F        C      C
When I'm wiser when I'm older
G        Am         F       C           C   G
All this time I was finding myself and I
Am       F          C
  Didn't know I was lost

C     G       Am     F        C     C
  So wake me up when it's all over
G        Am    F        C      C
When I'm wiser when I'm older
G        Am         F       C           C   G
All this time I was finding myself and I
Am       F          C
  Didn't know I was lost

  (12x)
  Am        F                  C        C          G
e|-------------------------------------------------0------|
B|--------------1--------------1--1--1--3---1---3-----1---|
G|-2--2--0--2------2---0--2--0----------------------------|
D|--------------------------------------------------------|
A|--------------------------------------------------------|
E|--------------------------------------------------------|


[Verse 2]

Am         F            C             C
   I tried carrying the weight of the world
Am    G* F             C     C
   But I only have two hands
Am        F                 C          C
   Hope I get the chance to travel the world
Am         G*  F        C       C
   And I don't have any plans

Am           F               C         C
   Wish that I could stay forever this young
Am     G* F      C        C
   Not afraid to close my eyes
Am          F             C     C  G
   Life's a game made for everyone
Am  G* F         C
   And love is a prize


[Chorus]

C            Am      F        C     C
  So wake me up when it's all over
G        Am    F        C      C
When I'm wiser when I'm older
G        Am         F       C           C   G
All this time I was finding myself and I
Am       F          C
  Didn't know I was lost

C     G       Am     F        C     C
  So wake me up when it's all over
G        Am    F        C      C
When I'm wiser when I'm older
G        Am         F       C           C   G
All this time I was finding myself and I
Am       F          C
  Didn't know I was lost


[Outro]

  (16x)
  Am        F                  C        C          G
e|-------------------------------------------------0------|
B|--------------1--------------1--1--1--3---1---3-----1---|
G|-2--2--0--2------2---0--2--0----------------------------|
D|--------------------------------------------------------|
A|--------------------------------------------------------|
E|--------------------------------------------------------|

I didn't know I was lost
I didn't know I was lost
I didn't know I was lost
I didn't know I was lost

            
            
Suggest correction
Creating personal tab
Creating personal tab
You can edit any tab online and save it as your Personal.

You can edit, replace or remove any tab part or add personal notes – all changes will be seen only by you.

Personal tabs can be accessed anytime from any device, even offline.
Learn more »
comments
print report bad tab
1 comment total.
-1 reply
AxeTicklr 10 Oct 14, 2013 12:03 AM

THIS SONG HAS A KILLER FAST RHYTHM...RHYTHM IS THE KEY TO MAKING IT SOUND RIGHT... THIS IS AN ACOUSTIC VERSION:

Am (002210)
F (X3321X)
C (032010)
E (022100)
G(add5) (320033)

Intro and Chorus
Am F C G
Am F C E
Am F C G
Am F C E...repeat

Verses:
Am F C
Am F C...repeat

BRIDGE
E|--------------------------------------------------------------------
A|--------------------------------------------------------------------
D|--------------------------------------------------------------------
G|--------------------------------------------------------------------
B|-12 12 10h 12-----12 10h 12p 10-------------------------------------
e|---------------10---------------10 10 10h 12p 10 12 12/14 10--------

guest
You may want to rate the tab now too:
select rating
Wanna post a correction for this tab? Suggest correction