Oops, an error
Loading. Please wait.

Quarter Past Four solo tab

version 1
version 1

Solo

  • Easy to read with standard tuning and no capo.

Whole song

76 views 3 this week
2 commentsread comments
1 2 3 4 5
x 5
add to favorites
×
Save as Personal and add changes to this tab that will be seen only by you. Learn more ›
×
You can save this tab as Personal to edit and correct it or add notes. All changes will be seen only by you. Learn more »
launch autoscroll
font size
0
reset
how to read this tab
guitar tuner
edit
Autoscroll
slow
fast
+/-
esc
set tempo
stop
About this tab version
Easy to read with standard tuning and no capo. Was this info helpful? Yes No
This is my first tab. I had to learn the pattern by ear, but I believe it's 100% correct!
Pay attention to the song and you'll be able to get the timing down easily.

Chords: Bm* - A - D(x2*) / G - Bm* - A(x2*) [repeats for the entire song]

Bm*:
e|--0--|
B|--3--|
G|--4--|
D|--0--|
A|--2--|
E|-----|

[Main riff]
  Bm*          A           D
e|-------------------------------2-------2-------2-----|
B|-------3-----------2-------3-------3-------3-------3-|
G|---4-------4---2-------2-----------------------------|
D|-------------------------0---0---0---0---0---0---0---|
A|-2---2---2---0---0---0-------------------------------|
E|-----------------------------------------------------|

   G
e|-----------------------------------------------------|
B|-------0-----------3-----------2-------2-------2-----|
G|---0-------0---4-------4---2-------2-------2-------2-|
D|-----------------------------------------------------|
A|-------------2---2---2---0---0---0---0---0---0---0---|
E|-3---3---3-------------------------------------------|

            
            
Suggest correction
Creating personal tab
Creating personal tab
You can edit any tab online and save it as your Personal.

You can edit, replace or remove any tab part or add personal notes – all changes will be seen only by you.

Personal tabs can be accessed anytime from any device, even offline.
Learn more »
comments
print report bad tab
2 comments total.
0 reply
Pinkbluesoul 10 4 days ago

Great, thank you!

+1 reply
Pinkbluesoul 10 4 days ago

I think the notes are correct, but in the original song they are played in other places (for example I think the D-major is played in the fifth on A-string, 7th on G-string and 7th on B-string.....). (Sorry for my poor English, hope you understood.)
But anyways : so happy, you shared this!

guest
You may want to rate the tab now too:
select rating
Wanna post a correction for this tab? Suggest correction