Oops, an error
Loading. Please wait.
We have an official Losing Grip tab made by UG professional guitarists. Check out the tab »
×
76 views 3 this week
no commentswrite comment
1 2 3 4 5
3 more votes to show rating
add to favorites
×
Save as Personal and add changes to this tab that will be seen only by you. Learn more ›
×
You can save this tab as Personal to edit and correct it or add notes. All changes will be seen only by you. Learn more »
launch autoscroll
font size
0
reset
how to read this tab
guitar tuner
edit
Autoscroll
slow
fast
+/-
esc
set tempo
stop
LOSING GRIP - AVRIL LAVIGNE
Live at Budokan (2005)
Tabbed by: Nico
Tuning: Drop C#
Tempo : 80

[Intro]
Guitar 1 w/ delay (375 ms - ~6 repeats)
D#|---------------------------------------|
A#|---------------------------------------|
F#|-2------------------------------5------|
C#|-2------3----5------5------3----5------| x2
G#|-0------3----3------5------3----3------|
C#|--------3-----------5------3-----------|

[Verse 1]
Guitar 1
D#|---------------------------------------|
A#|---------------------------------------|
F#|-2------------------------------5------|
C#|-2------3----5------5------3----5------| \
G#|-0------3----3------5------3----3------|  \
C#|--------3-----------5------3-----------|   \
                                               \
Guitar 2 w/ acoustic sim (or piezo bridge)         x5
D#|---------------------------------------|    /
A#|-------0-------------------------------|   / 
F#|-----2---------------------------------|  /
C#|---2------------5-------5----------5---| /
G#|-0-----------3--------5---------3------|
C#|----------3---------5--------3---------|

[Chorus]
Guitar 1 (Bridge pickup) w/ Hi Gain
D#|-----------------------------------------------------------------------------|
A#|-----------------------------------------------------------------------------|
F#|-2---2---------------------------------2---2---------------------------------|
C#|-2---2--5--5-5-----5---5--5---5-5------2---2--5--5-5-----5-5-5-5--5-0--------| 
G#|-0---0--2--2-2--5--3---3--2---2-2--5---0---0--2--2-2--5--3-3-3-3--3-0----(5b)|
C#|--------2--2-2--5--3---3--2---2-2--5----------2--2-2--5--3-3-3-3--3-0--------| \ 
                                                                             +     \
Guitar 2 w/ Hi Gain                                                                 x2
D#|-----------------------------------------------------------------------------|  / 
A#|-----------------------------------------------------------------------------| /
F#|--------------------------------------------------------------------2--------|
C#|-9---9--2--2-2--5--3---3--2---2-2--5---9---9--2--2-2--5--3-3-3-3--3-0--------|
G#|-7---7--2--2-2--5--3---3--2---2-2--5---7---7--2--2-2--5--3-3-3-3--3-0--------|
C#|-7---7--2--2-2--5--3---3--2---2-2--5---7---7--2--2-2--5--3-3-3-3--3-0--------|

[Verse 2]
Guitar 1 w/ delay (375 ms - ~6 repeats)
D#|---------------------------------------|
A#|---------------------------------------|
F#|-2------------------------------5------|
C#|-2------3----5------5------3----5------| \
G#|-0------3----3------5------3----3------|  \
C#|--------3-----------5------3-----------|   \
                                               \
Guitar 2 (acoustic sim or piezo bridge)         x6
D#|---------------------------------------|    /
A#|-------0-------------------------------|   / 
F#|-----2---------------------------------|  /
C#|---2------------5-------5----------5---| /
G#|-0-----------3--------5---------3------|
C#|----------3---------5--------3---------|

[Chorus]
Guitar 1 (Bridge pickup) w/ Hi Gain
D#|-----------------------------------------------------------------------------|
A#|-----------------------------------------------------------------------------|
F#|-2---2---------------------------------2---2---------------------------------|
C#|-2---2--5--5-5-----5---5--5---5-5------2---2--5--5-5-----5-5-5-5--5-0--------| 
G#|-0---0--2--2-2--5--3---3--2---2-2--5---0---0--2--2-2--5--3-3-3-3--3-0----(5b)|
C#|--------2--2-2--5--3---3--2---2-2--5----------2--2-2--5--3-3-3-3--3-0--------| \ 
                                                                             +     \
Guitar 2 w/ Hi Gain                                                                 x2
D#|-----------------------------------------------------------------------------|  / 
A#|-----------------------------------------------------------------------------| /
F#|--------------------------------------------------------------------2--------|
C#|-9---9--2--2-2--5--3---3--2---2-2--5---9---9--2--2-2--5--3-3-3-3--3-0--------|
G#|-7---7--2--2-2--5--3---3--2---2-2--5---7---7--2--2-2--5--3-3-3-3--3-0--------|
C#|-7---7--2--2-2--5--3---3--2---2-2--5---7---7--2--2-2--5--3-3-3-3--3-0--------|

[Interlude]
Guitar 1

     Let ring w/ kill switch (On LP style: use pickup selector w/ neck volume off)
D#|---------------------------------------------------------------------------|
A#|---------------------------------------------------------------------------|
F#|---------------------------------------------------------------------------|
C#|-(0)-----------------------------------------------------------------------|
G#|-(0)-----------------------------------------------------------------------|
C#|-(0)-----------------------------------------------------------------------|

Guitar 2 w/ acoustic sim
D#|--------------------------------------------------------------------------------------|
A#|--------------------------------------------------------------------------------------|
F#|-2---2--2-2--0--0---0---0--0-0--0-0--0-0---2---2--2-2--0--0---0---0--0-0--0-0--0-0----|
C#|-0---0--0-0--0--0---0---0--0-0--0-0--0-0---0---0--0-0--0--0---0---0--0-0--0-0--0-0----|
G#|-0---0--0-0--3--3---5---5--5-5--5-5--3-3---0---0--0-0--3--3---5---5--5-5--5-5--3-3----|
C#|-0---0--0-0--3--3---5---5--5-5--5-5--3-3---0---0--0-0--3--3---5---5--5-5--5-5--3-3----|

[Bridge]
Both guitars
D#|--------------------------------------------------------------------------------------|
A#|--------------------------------------------------------------------------------------|
F#|-2---2--2-2----------------------------------2---2--2-2-------------------------------|
C#|-0---0--0-0--5--5---7---7--7-7--7-7--5--4--3-0---0--0-0--5--5---7---------------------|
G#|-0---0--0-0--3--3---5---5--5-5--5-5--3--2--1-0---0--0-0--3--3---5---------------------|
C#|-0---0--0-0--3--3---5---5--5-5--5-5--3--2--1-0---0--0-0--3--3---5---------------------|

Guitar 1
D#|---------------------------------------------------------------------|
A#|---------------------------------------------------------------------|
F#|-------------------------------------------------------------x-x-x-x-|
C#|-7-----5-7--/10--9--7---7-9-9-9--7-10-9-7--5-7-7-7--5-7------x-x-x-x-|
G#|-------------------------------------------------------------x-x-x-x-|
C#|-------------------------------------------------------------x-x-x-x-|

Guitar 2
D#|-0-------------------------------------------------------------------|
A#|-0----------------------0--------------------------------------------|
F#|-2----0-----0----0------0-------0--------0-------0-------------------|
C#|-2----0-----0----0------2-------0--------0-------0-------------------|
G#|-0----2-----3----2------2-------2--------3-------2-------------------|
C#|------2-----3----2--------------2--------3-------2-------------------|

[Chorus]
Guitar 1 (Bridge pickup) w/ Hi Gain
D#|-----------------------------------------------------------------------------|
A#|-----------------------------------------------------------------------------|
F#|-2---2---------------------------------2---2---------------------------------|
C#|-2---2--5--5-5-----5---5--5---5-5------2---2--5--5-5-----5-5-5-5--5-0--------| 
G#|-0---0--2--2-2--5--3---3--2---2-2--5---0---0--2--2-2--5--3-3-3-3--3-0----(5b)|
C#|--------2--2-2--5--3---3--2---2-2--5----------2--2-2--5--3-3-3-3--3-0--------| \ 
                                                                             +     \
Guitar 2 w/ Hi Gain                                                                 x2
D#|-----------------------------------------------------------------------------|  / 
A#|-----------------------------------------------------------------------------| /
F#|--------------------------------------------------------------------2--------|
C#|-9---9--2--2-2--5--3---3--2---2-2--5---9---9--2--2-2--5--3-3-3-3--3-0--------|
G#|-7---7--2--2-2--5--3---3--2---2-2--5---7---7--2--2-2--5--3-3-3-3--3-0--------|
C#|-7---7--2--2-2--5--3---3--2---2-2--5---7---7--2--2-2--5--3-3-3-3--3-0--------|

Final chord:
D#|-----------|  
A#|-----------| 
F#|-----------|
C#|-9---------|
G#|-7---------|
C#|-7---------|

************************************

| /   slide up
| +   harmonic
| b   Bend

************************************

            
            
Suggest correction
Creating personal tab
Creating personal tab
You can edit any tab online and save it as your Personal.

You can edit, replace or remove any tab part or add personal notes – all changes will be seen only by you.

Personal tabs can be accessed anytime from any device, even offline.
Learn more »
Give kudos to tab author, rate the tab!
1 2 3 4 5
comments
print report bad tab
guest
You may want to rate the tab now too:
select rating
Wanna post a correction for this tab? Suggest correction