Oops, an error
Loading. Please wait.
We have an official Sk8Er Boi tab made by UG professional guitarists. Check out the tab »
×
32,824 views 9 this week
4 commentsread comments
1 2 3 4 5
x 24
add to favorites
×
Save as Personal and add changes to this tab that will be seen only by you. Learn more ›
×
You can save this tab as Personal to edit and correct it or add notes. All changes will be seen only by you. Learn more »
launch autoscroll
font size
0
reset
guitar tuner
backing track
0:00
0:00
edit
Autoscroll
slow
fast
+/-
esc
set tempo
stop
Author
Unregistered
-------------------------------------------------------------------------------
                             Sk8er Boi - Avril Lavigne
-------------------------------------------------------------------------------
Tabbed By : kire                
e-mail: kireb@hotmail.com

Tuning: STANDARD

[Intro]

G|-----------------------------------------------------------------------------|
D|-0-0-0-0-0-0-0-0-------------------------------------------------------------|
A|------------------0-0-0-0-0-0-0-0--2-2-2-2-2-2-2-2--1-1-1-1--0-0-0-0---------|
E|-----------------------------------------------------------------------------|(2x)

[Verse 1]

G|-------------------------------------------------------------------|
D|-0-0-0-0-0-0-0-0---------------------------------------------------|
A|------------------0-0-0-0-0-0-0-0--2-2-2-2-2-2-2-2--1-1-1-1-1-1-1-1|
E|-------------------------------------------------------------------|(2x)

G|-------------------------------------------------------------------|
D|-0-0-0-0-0-0-0-0---------------------------------------------------|
A|------------------0-0-0-0-0-0-0-0--2-2-2-2-2-2-2-2--3-3-3-3-3-3-3-3|
E|-------------------------------------------------------------------|

[Chorus]

G|-------------------------------------------------------------------|
D|-------------------------------------------------------------------|
A|------------------3-3-3-3-3-3-3-3--1-1-1-1-1-1-1-1--0-0-0-0-0-0-0-0|
E|-1-1-1-1-1-1-1-1---------------------------------------------------|(2x)

[Outro]

G|----------------|
D|----------------|
A|-1-1-1-1-1-1-1-1|
E|----------------|

[Verse 2]

G|-------------------------------------------------------------------|
D|-0-0-0-0-0-0-0-0---------------------------------------------------|
A|------------------0-0-0-0-0-0-0-0--2-2-2-2-2-2-2-2--1-1-1-1-1-1-1-1|
E|-------------------------------------------------------------------|(2x)

G|-------------------------------------------------------------------|
D|-0-0-0-0-0-0-0-0---------------------------------------------------|
A|------------------0-0-0-0-0-0-0-0--2-2-2-2-2-2-2-2--3-3-3-3-3-3-3-3|
E|-------------------------------------------------------------------|

[Chorus]

G|-------------------------------------------------------------------|
D|-------------------------------------------------------------------|
A|------------------3-3-3-3-3-3-3-3--1-1-1-1-1-1-1-1--0-0-0-0-0-0-0-0|
E|-1-1-1-1-1-1-1-1---------------------------------------------------|(2x)

[Solo]

G|-----------------------------------------------------------|
D|-----------------------------------------------------------|     
A|------------------3-3-3-3-3-3-3-3--1-1-1-1-1-1-1-1--4-4-4-4|
E|-1-1-1-1-1-1-1-1-------------------------------------------|
                             
G|-----------------------------------------------------------|
D|-----------------------------------------------------------|
A|------------------3-3-3-3-3-3-3-3--1-1-1-1-1-1-1-1--4-4-4-0|
E|-1-1-1-1-1-1-1-1-------------------------------------------|
                             
[Bridge]

G|-------------------------------------------------------------------------|
D|-0-0-0-0-0-0-0-0-0-0-0-0-0-0-0-0-3-3-3-3-3-3-3-3-3-3-3-3-3-3-3-3---------|
A|-------------------------------------------------------------------------|
E|-------------------------------------------------------------------------|
                                                                           |(2x)
G|-------------------------------------------------------------------------|
D|-------------------------------------------------------------------------|
A|-3-3-3-3-3-3-3-3-3-3-3-3-3-3-3-3-1-1-1-1-1-1-1-1-0-0-0-0-0-0-0-0---------|
E|-------------------------------------------------------------------------|

[Verse 3]

G|--------------------------------------------------------------|
D|-0--0-0-------------------------0--0-0------------------------|
A|---------0--0-0--2--2-2--1--1-1--------0--0-0--2--2-2--3--3-3-|
E|--------------------------------------------------------------|

[Chorus]

G|-------------------------------------------------------------------|
D|-------------------------------------------------------------------|
A|------------------3-3-3-3-3-3-3-3--1-1-1-1-1-1-1-1--0-0-0-0-0-0-0-0|
E|-1-1-1-1-1-1-1-1---------------------------------------------------|(4x)

            
            
Suggest correction
Creating personal tab
Creating personal tab
You can edit any tab online and save it as your Personal.

You can edit, replace or remove any tab part or add personal notes – all changes will be seen only by you.

Personal tabs can be accessed anytime from any device, even offline.
Learn more »
comments
print report bad tab
4 comments total. Showing first comments.
0 reply
Tijmen 50 Dec 27, 2003 07:00 PM

Perfect tab, thanks!

0 reply
Alien_from_a_cd 420 Jan 08, 2005 07:00 PM

Yeah, boring but correct.

0 reply
Metallica Fan21 50 Jun 03, 2006 09:20 AM

lol, boring but correct. Noice.

guest
Wanna post a correction for this tab? Suggest correction