Oops, an error
Loading. Please wait.

Why tab

version 1
version 1

Whole song

Interactive

67,506 views 3 this week
8 commentsread comments
1 2 3 4 5
x 15
add to favorites
×
Save as Personal and add changes to this tab that will be seen only by you. Learn more ›
×
You can save this tab as Personal to edit and correct it or add notes. All changes will be seen only by you. Learn more »
launch autoscroll
font size
0
reset
how to read this tab
guitar tuner
edit
Autoscroll
slow
fast
+/-
esc
set tempo
stop
Tabbed By Matt Furlong *Lord Of The Strings*
Avril Lavigne
Why

this is the "complete" tab for why! i love Avril shes the coolest!!!  and if there are any
questions about this tab, my icq number is 131037979.

Intro
-0-----0-------0------0----------
-3-----3-------3------3----------
-2-----0-------2------0----------
-0-----0-------0------0----------
-x-----2-------x------2----------
-x-----3-------x------3----------

"why do you always do this to me......"
-0------0------0----------0------
-3------3------3----------3------
-2------0------2----------2------
-0------0------0----------2------
-x------2------x----------0------
-x------3------x----------x------

"why couldnt you just see you thourgh me?"
-0------0------0----------0-----------------0-----
-3------3------3----------3-----------------3-----
-2------0------2----------2-----------------2-----
-0------0------0----------2-----------------0-----
-x------2------x----------0-----------------x-----
-x------3------x----------x-----------------x-----

"how come you act like this like you just dont care at all?"
-0---------0---------0----------0-----------------0-----
-3---------3---------3----------3-----------------3-----
-2---------0---------2----------2-----------------2-----
-0---------0---------0----------2-----------------0-----
-x---------2---------x----------0-----------------x-----
-x---------3---------x----------x-----------------x-----

"Do   you expect me to believe I was the  only one to fall"
--0-----0-----------------0--------------------0--------------
--3-----3-----------------3--------------------3--------------
--0-----0-----------------0--------------------2--------------
--0-----0-----------------0--------------------2--------------
--x-----2-----------------x--------------------0--------------
--2-----3-----------------2--------------------x--------------

"i can feel, i can feel you near me......"
--0-------------------0---------------------------------------
--3-------------------3---------------------------------------
--0-------------------0---------------------------------------
--0-------------------0---------------------------------------
--2-------------------x---------------------------------------
--3-------------------2---------------------------------------

"even though your far away....."
-0------------------0-------------------------
-3------------------3-------------------------
-0------------------2-------------------------
-2------------------2-------------------------
-2------------------0-------------------------
-0------------------x-------------------------

"i can feel, i can feel you baby...... why?"
-0--------------0-------------0---------------
-3--------------3-------------3---------------
-0--------------0-------------0---------------
-0--------------0-------------2---------------
-2--------------x-------------2---------------
-3--------------2-------------0---------------

"its not spose to feel this way........"
-x-----------x--------------------------
-x-----------x--------------------------
-7-----------7--------------------------
-7-----------7--------------------------
-5-----------4--------------------------
-x-----------x--------------------------

"i need you i need you more and more each day........"
-2-----x--------0-----------x--------------------------
-3-----x--------3-----------x--------------------------
-4-----2--------0-----------2--------------------------
-4-----2--------0-----------2--------------------------
-2-----0--------2-----------0--------------------------
-x-----x--------3-----------x--------------------------

"its not spose to hurt this way......
-x-----------x-----------------------------------------
-x-----------x-----------------------------------------
-7-----------7-----------------------------------------
-7-----------7-----------------------------------------
-5-----------4-----------------------------------------
-x-----------x-----------------------------------------

"i need you i need you i need you tell me......."
--2-------x-----------x----------x---------------------
--3-------x-----------x----------x---------------------
--4-------2-----------x----------2---------------------
--4-------2-----------2----------2---------------------
--2-------0-----------2----------0---------------------
--x-------x-----------0----------x---------------------

"are you and me still together?........"
-2-----------------------0-----------------------------
-3-----------------------3-----------------------------
-4-----------------------0-----------------------------
-4-----------------------2-----------------------------
-2-----------------------2-----------------------------
-x-----------------------0-----------------------------

"you think we can last forever?"
-2------------------------0----------------------------
-3------------------------3----------------------------
-4------------------------0----------------------------
-4------------------------2----------------------------
-2------------------------2----------------------------
-x------------------------0----------------------------


"why?"
-0-----0------------
-3-----3------------
-0-----2------------
-0-----2------------
-2-----0------------
-3-----x------------






-0-----0-------0------0-----------------------------------------
-3-----3-------3------3-----------------------------------------
-2-----0-------2------0-----------------------------------------
-0-----0-------0------0-----------------------------------------
-x-----2-------x------2-----------------------------------------
-x-----3-------x------3-----------------------------------------

"hey listen to what we're not sayin'...."
-0------0------0----------0------
-3------3------3----------3------
-2------0------2----------2------
-0------0------0----------2------
-x------2------x----------0------
-x------3------x----------x------

"lets play a different game then what we're playin'........"
-0-------------0---------0----------0------
-3-------------3---------3----------3------
-2-------------0---------2----------2------
-0-------------0---------0----------2------
-x-------------2---------x----------0------
-x-------------3---------x----------x------

"try to look at me and really see my heart......"
-0----0----------0---------0-------------------0----------------
-3----3----------3---------3-------------------3----------------
-2----0----------2---------2-------------------2----------------
-0----0----------0---------2-------------------0----------------
-x----2----------x---------0-------------------x----------------
-x----3----------x---------x-------------------x----------------

"do you expect me to believe im gonna let us fall apart?......."
--0-----0-----------------0--------------------0----------------
--3-----3-----------------3--------------------3----------------
--0-----0-----------------0--------------------2----------------
--0-----0-----------------0--------------------2----------------
--x-----2-----------------x--------------------0----------------
--2-----3-----------------2--------------------x----------------


"i can feel, i can feel you near me......"
--0-------------------0-----------------------------------------
--3-------------------3-----------------------------------------
--0-------------------0-----------------------------------------
--0-------------------0-----------------------------------------
--2-------------------x-----------------------------------------
--3-------------------2-----------------------------------------

"even though your far away....."
-0------------------0-------------------------------------------
-3------------------3-------------------------------------------
-0------------------2-------------------------------------------
-2------------------2-------------------------------------------
-2------------------0-------------------------------------------
-0------------------x-------------------------------------------

"i can feel, i can feel you baby...... why?"
-0--------------0-------------0---------------------------------
-3--------------3-------------3---------------------------------
-0--------------0-------------0---------------------------------
-0--------------0-------------2---------------------------------
-2--------------x-------------2---------------------------------
-3--------------2-------------0---------------------------------


"its not spose to feel this way........"
-x-----------x--------------------------------------------------
-x-----------x--------------------------------------------------
-7-----------7--------------------------------------------------
-7-----------7--------------------------------------------------
-5-----------4--------------------------------------------------
-x-----------x--------------------------------------------------

"i need you i need you more and more each day........"
-2-----x--------0-----------x-----------------------------------
-3-----x--------3-----------x-----------------------------------
-4-----2--------0-----------2-----------------------------------
-4-----2--------0-----------2-----------------------------------
-2-----0--------2-----------0-----------------------------------
-x-----x--------3-----------x-----------------------------------

"its not spose to hurt this way......
-x-----------x--------------------------------------------------
-x-----------x--------------------------------------------------
-7-----------7--------------------------------------------------
-7-----------7--------------------------------------------------
-5-----------4--------------------------------------------------
-x-----------x--------------------------------------------------

"i need you i need you i need you tell me......."
--2-------x-----------x-----0-------x---------------------------
--3-------x-----------x-----3-------x---------------------------
--4-------2-----------x-----0-------2---------------------------
--4-------2-----------2-----0-------2---------------------------
--2-------0-----------2-----2-------0---------------------------
--x-------x-----------0-----3-------x---------------------------


"are you and me still together?........"
-2-----------------------0-----------------------------
-3-----------------------3-----------------------------
-4-----------------------0-----------------------------
-4-----------------------2-----------------------------
-2-----------------------2-----------------------------
-x-----------------------0-----------------------------

"you think we can last forever?"
-2------------------------0----------------------------
-3------------------------3----------------------------
-4------------------------0----------------------------
-4------------------------2----------------------------
-2------------------------2----------------------------
-x------------------------0----------------------------


"why?"
-0-----0------------
-3-----3------------
-0-----2------------
-0-----2------------
-2-----0------------
-3-----x------------


"so go on and think about whatever you need to think about......."
-0------------------------------------x---------------------------------
-3------------------------------------x---------------------------------
-0------------------------------------2---------------------------------
-0------------------------------------2---------------------------------
-2------------------------------------4---------------------------------
-3------------------------------------x---------------------------------

"go on and dream about whatever you need to dream about......."
--0---------------------0-----------------------------------------------
--3---------------------3-----------------------------------------------
--2---------------------2-----------------------------------------------
--0---------------------x-----------------------------------------------
--x---------------------3-----------------------------------------------
--x---------------------x-----------------------------------------------

"And come back to me when you notice how you feel, you feel........."
--3---------------3-----------------0-----------------------------------
--3---------------3-----------------3-----------------------------------
--0---------------0-----------------2-----------------------------------
--0---------------0-----------------2-----------------------------------
--2---------------1-----------------0-----------------------------------
--x---------------x-----------------x-----------------------------------



"i can feel, i can feel you near me......"
--0-------------------0-------------------------------------------------
--3-------------------3-------------------------------------------------
--0-------------------0-------------------------------------------------
--0-------------------0-------------------------------------------------
--2-------------------x-------------------------------------------------
--3-------------------2-------------------------------------------------

"even though your far away....."
-0------------------0---------------------------------------------------
-3------------------3---------------------------------------------------
-0------------------2---------------------------------------------------
-2------------------2---------------------------------------------------
-2------------------0---------------------------------------------------
-0------------------x---------------------------------------------------

"i can feel, i can feel you baby...... why?"
-0--------------0-------------0-----------------------------------------
-3--------------3-------------3-----------------------------------------
-0--------------0-------------0-----------------------------------------
-0--------------0-------------2-----------------------------------------
-2--------------x-------------2-----------------------------------------
-3--------------2-------------0-----------------------------------------


"its not spose to feel this way........"
-x-----------x----------------------------------------------------------
-x-----------x----------------------------------------------------------
-7-----------7----------------------------------------------------------
-7-----------7----------------------------------------------------------
-5-----------4----------------------------------------------------------
-x-----------x----------------------------------------------------------

"i need you i need you more and more each day........"
-2-----x--------0-----------x-------------------------------------------
-3-----x--------3-----------x-------------------------------------------
-4-----2--------0-----------2-------------------------------------------
-4-----2--------0-----------2-------------------------------------------
-2-----0--------2-----------0-------------------------------------------
-x-----x--------3-----------x-------------------------------------------

"its not spose to hurt this way......
-x-----------x----------------------------------------------------------
-x-----------x----------------------------------------------------------
-7-----------7----------------------------------------------------------
-7-----------7----------------------------------------------------------
-5-----------4----------------------------------------------------------
-x-----------x----------------------------------------------------------

"i need you i need you i need you tell me......."
--2-------x-----------2-------x-----2-----------------------------------
--3-------x-----------3-------x-----3-----------------------------------
--4-------2-----------4-------2-----4-----------------------------------
--4-------2-----------4-------2-----4-----------------------------------
--2-------0-----------2-------0-----2-----------------------------------
--x-------x-----------x-------x-----x-----------------------------------


"its not spose to feel this way......"        
-x-----------------------x----------------------------------------------
-x-----------------------x----------------------------------------------
-9-----------------------9----------------------------------------------
-9-----------------------9----------------------------------------------
-7-----------------------6----------------------------------------------
-x-----------------------x----------------------------------------------

"I need you I need you more and more each day"
-4------------x------------x-------------x------------------------------
-5------------x------------x-------------x------------------------------
-6------------4------------2-------------4------------------------------
-6------------4------------2-------------4------------------------------
-4------------2------------0-------------2------------------------------
-x------------x------------x-------------x------------------------------

"It's not supposed to hurt this way"
-x-----------------------x----------------------------------------------
-x-----------------------x----------------------------------------------
-9-----------------------9----------------------------------------------
-9-----------------------9----------------------------------------------
-7-----------------------6----------------------------------------------
-x-----------------------x----------------------------------------------

"I need you I need you I need you tell me"
-4------------x------------x-------------x------------------------------
-5------------x------------x-------------x------------------------------
-6------------4------------2-------------4------------------------------
-6------------4------------2-------------4------------------------------
-4------------2------------0-------------2------------------------------
-x------------x------------x-------------x------------------------------

"Are you and me still together? Tell me"
--4---------------------2-----------------------------------------------
--5---------------------2-----------------------------------------------
--6---------------------2-----------------------------------------------
--6---------------------4-----------------------------------------------
--4---------------------4-----------------------------------------------
--x---------------------2-----------------------------------------------

"You think we can last forever? Tell me..."
--4---------------------2-----------------------------------------------
--5---------------------2-----------------------------------------------
--6---------------------2-----------------------------------------------
--6---------------------4-----------------------------------------------
--4---------------------4-----------------------------------------------
--x---------------------2-----------------------------------------------

"why?"
---x------x-------------------------------------------------------------
---x------x-------------------------------------------------------------
---2------4-------------------------------------------------------------
---2------4-------------------------------------------------------------
---0------2-------------------------------------------------------------
---x------x-------------------------------------------------------------

            
            
Suggest correction
Creating personal tab
Creating personal tab
You can edit any tab online and save it as your Personal.

You can edit, replace or remove any tab part or add personal notes – all changes will be seen only by you.

Personal tabs can be accessed anytime from any device, even offline.
Learn more »
comments
print report bad tab
8 comments total. Showing first comments.
0 reply
Jinx 1,750 Dec 13, 2002 07:00 PM

"WHY"?

I wanna know "WHY" people tab this crap

0 reply
Avril_fan 10 Jan 22, 2003 07:00 PM

Because some people Actually like this crap!!! LIKE ME!!!! ROCK ON MATT!! Thanks for the tab!!

0 reply
Mus(e)ic 102 Mar 09, 2003 07:00 PM

This is just quality!!!

guest
Wanna post a correction for this tab? Suggest correction