Oops, an error
Loading. Please wait.

Sochirahechu chords

52 views 1 this week
no commentswrite comment
1 2 3 4 5
3 more votes to show rating
add to favorites
×
Save as Personal and add changes to this tab that will be seen only by you. Learn more ›
×
You can save this tab as Personal to edit and correct it or add notes. All changes will be seen only by you. Learn more »
launch autoscroll
font size
0
reset
transpose
0
reset
display chords
guitar tuner
edit
Autoscroll
slow
fast
+/-
esc
set tempo
stop
Strumming
There is no strumming pattern for this song yet. and get +5 IQ
Tuning
Capo 1

D                  F#m
Pransanna cha maan Na chinta kunai
Bm            F#m
Taipani nayan Khojdacha kehi
D             F#m
Bujaeeeh kina Sakinnnahh bujna
Bm           F#m
Apahieh bhab anyol ma chan
D            F#m
Galaath sahi thahacha sabai
Bm                 F#m
Taipani dajna kina sakindaina

E-------------------------------2-----2----------------------l
B-------------------------------3-- --2----------------------l
G--------------------------2----2-----2---2—2h4—2------------l
D------------------4—5----------------4 -----------------4—2-l
A------------------------------------ 4 ---------------------l
E------------------------------------------------------------l
[Socheraheychau k garna sakchau]x2

Music


E---5s7---7---7-----5-----3-----2-----3----3h5------2----5s7----7-----7-----5-----3----2-----3----3h5-----5-l
B-----------------------------------------------------------------------------------------------------------l
G-----------------------------------------------------------------------------------------------------------l
D-----------------------------------------------------------------------------------------------------------l
A-----------------------------------------------------------------------------------------------------------l
E-----------------------------------------------------------------------------------------------------------l

D                   F#m
Pyacool cha taan na uttar katai
Bm              F#m
Taipani chayean cha almalaundai

D           F#m
Samaya kina simit hudaina
Bm             F#m
Adhura yi paal bileein huncha
D             F#m
Chahana sabai espastah nai chan
Bm                  F#m 
Teipani kehi yeahaa sameytin nna
D                 F#m
[Socheraheychau k garna sakchau]x2

            
            
Suggest correction
Creating personal tab
Creating personal tab
You can edit any tab online and save it as your Personal.

You can edit, replace or remove any tab part or add personal notes – all changes will be seen only by you.

Personal tabs can be accessed anytime from any device, even offline.
Learn more »
Give kudos to tab author, rate the tab!
1 2 3 4 5
comments
print report bad tab
guest
You may want to rate the tab now too:
select rating
Wanna post a correction for this tab? Suggest correction