Oops, an error
Loading. Please wait.

Rock N Roll Party In The Street tab

version 1
version 1

Whole song

by Axe
4,408 views 1 this week
3 commentsread comments
1 2 3 4 5
x 6
add to favorites
×
Save as Personal and add changes to this tab that will be seen only by you. Learn more ›
×
You can save this tab as Personal to edit and correct it or add notes. All changes will be seen only by you. Learn more »
launch autoscroll
font size
0
reset
how to read this tab
guitar tuner
backing track
0:00
0:00
edit
Autoscroll
slow
fast
+/-
esc
set tempo
stop
I was listening to This Song recently with My Friend,
and wanted to play it,
so i looked it up on Ultimate Guitar,

and it was not here,

so me and my Friend got it by ear,

this is what we got,
(if i get more of it tabbed ill Put it on here)

Song: Rock 'n' Roll Party in the Street
Band: Axe
Album: Offerings
Tabbed by: Zack


-Intro-

e|------------------------------|
B|------------------------------|
G|--9-9---9-9---7-7---7-7-------|
D|--9-9---9-9---7-7---7-7-------|
A|--7-7---7-7---5-5---5-5-------|
E|------------------------------|

e|------------------------------|
B|------------------------------|
G|--4-4--5-5--7-7--12--12-11----|
D|--4-4--5-5--7-7--12--12-11----|
A|--2-2--3-3--5-5--10--10-9-----|
E|------------------------------|

-Zack

            
            
Suggest correction
Creating personal tab
Creating personal tab
You can edit any tab online and save it as your Personal.

You can edit, replace or remove any tab part or add personal notes – all changes will be seen only by you.

Personal tabs can be accessed anytime from any device, even offline.
Learn more »
comments
print report bad tab
3 comments total.
0 reply
SONNY MUNSON 32 May 07, 2010 03:13 PM

first off, he uploaded this as the whole song when it's only the intro. secondly, he got the timing all wrong, and lastly, he said if he learns more he'll post it, but of coarse he won't, cuz this is from way back in march of 2009, so stop rating five stars.

0 reply
SONNY MUNSON 32 May 07, 2010 03:35 PM

ok, so heres this guys tab in timing that doesn't suck. and people please stop pasting just the intros of songs as 'whole song'.thats freakin annoying
e|------------------------------|
B|------------------------------|
G|-99------99-----77-----77-----|
D|-99------99-----77-----77-----|
A|-77------77-----55-----55-----|
E|------------------------------|

e|----------------------|
B|----------------------|
G|---44--55--77-12-1211-|
D|---44--55--77-12-1211-|
A|---22--33--55-10-10-9-|
E|----------------------|

0 reply
SONNY MUNSON 32 Jun 26, 2013 10:04 PM

this is actually a great tab, sorry zack....

guest
Wanna post a correction for this tab? Suggest correction