Oops, an error
Loading. Please wait.

Rock N Roll Party In The Street tab

version 2
version 2

Whole song

by Axe
3,850 views 12 this week
no commentswrite comment
1 2 3 4 5
3 more votes to show rating
add to favorites
×
Save as Personal and add changes to this tab that will be seen only by you. Learn more ›
×
You can save this tab as Personal to edit and correct it or add notes. All changes will be seen only by you. Learn more »
launch autoscroll
font size
0
reset
how to read this tab
guitar tuner
backing track
0:00
0:00
edit
Autoscroll
slow
fast
+/-
esc
set tempo
stop
Author
Difficulty
This tab shows the notes the piano plays. for if u want to play that.

band: Axe
song: Rock N Roll Party In The Streets
album: offerings


INTRO

NOTE: THE PIANO PART SOUNDS GOOD TO 
PALM MUTE AS YOU PLAY IT ON GUITAR.


GUITAR     e|------------------------------------|---------------------------------|
           B|------------------------------------|---------------------------------|
           G|---9-9---------------9-9------------|---7-7-------------7-7-----------|
           D|---9-9---------------9-9------------|---7-7-------------7-7-----------|
           A|---7-7---------------7-7------------|---5-5-------------5-5-----------|
           E|------------------------------------|---------------------------------|
            |                                    |                                 |
            |                                    |                                 |
PIANO      e|------------------------------------|---------------------------------|
ARRANGED   B|------------------------------------|---------------------------------|
FOR GUITAR G|------------------------------------|---------------------------------|
           D|-------9-10---9-10-------9-10---9-10|-------9-7---9-7-------9-7-------|
           A|-0-7-7-------------0-7-7------------|-0-5-5-----------0-5-5-------9-7-|
           E|------------------------------------|---------------------------------|

                                         
GUITAR     e|--------------------------------|
           B|--------------------------------|
           G|--4-4-----5-5-----7-7---12--1211|
           D|--4-4-----5-5-----7-7---12--1211|
           A|--2-2-----3-3-----5-5---10--10-9|
           E|--------------------------------|
            |                                |
            |                                |
PIANO      e|--------------------------------|
ARRANGED   B|--------------------------------|
FOR GUITAR G|------4-------5-------7---------|
           D|0-2-2---0-3-3---0-5-5-0-10--10-9|
           A|--------------------------------|
           E|--------------------------------|


VERSE

GUITAR     e|--------|--------|--------|--------|--------|--------|--------|---------|
           B|--------|--------|--------|--------|--------|--------|--------|---------|
           G|--------|--------|--------|--------|--------|--------|--------|---------|
           D|--------|--------|--------|--------|--------|--------|--------|---------|
           A|-2-2-2-2|-2-2-2-2|-2-2-2-2|-2-2-2-2|-5-5-5-5|-5-5-5-5|-5-5-5-5|-5-5-5-5-|repeat
           E|-0-0-0-0|-0-0-0-0|-0-0-0-0|-0-0-0-0|-3-3-3-3|-3-3-3-3|-3-3-3-3|-3-3-3-3-|as many
            | * * * *  * * * *  * * * *  * * * *  * * * *  * * * *  * * * *  * * * * |times
            |                                                                        |as needed
PIANO      e|------------------------------------------------------------------------|
ARRANGED   B|-UNKNOWN--(SIMILAR TO INTRO BUT WITH A FEW SMALL DIFFERANCES HERE AND---|
FOR GUITAR G|-THERE, YOU COULD JUST PLAY INTRO FOR THIS )----------------------------|
           D|------------------------------------------------------------------------|
           A|------------------------------------------------------------------------|
           E|------------------------------------------------------------------------|


            * = PALM MUTE

            
            
Suggest correction
Creating personal tab
Creating personal tab
You can edit any tab online and save it as your Personal.

You can edit, replace or remove any tab part or add personal notes – all changes will be seen only by you.

Personal tabs can be accessed anytime from any device, even offline.
Learn more »
Give kudos to tab author, rate the tab!
1 2 3 4 5
comments
print report bad tab
guest
You may want to rate the tab now too:
select rating
Wanna post a correction for this tab? Suggest correction