Oops, an error
Loading. Please wait.

Cargo De Nuit bass

100 views 1 this week
no commentswrite comment
1 2 3 4 5
3 more votes to show rating
add to favorites
×
Save as Personal and add changes to this tab that will be seen only by you. Learn more ›
×
You can save this tab as Personal to edit and correct it or add notes. All changes will be seen only by you. Learn more »
launch autoscroll
font size
0
reset
guitar tuner
edit
Autoscroll
slow
fast
+/-
esc
set tempo
stop
Artist: Axel Bauer 
Song: Cargo De Nuit
Tuning - Standard
Time - 4/4
tabbed by electricbunny

[Intro]                                                             
G|--------------------------------|--------------------------------|
D|--------------------------------|--------------------------------|
A|--------2-------0-----2---------|--------2-------0-----2-----0-2-| (x6)
E|------------2-------------------|------------2-------------2-----|
                                                                    
[Verse]                                                             
G|--------------------------------|--------------------------------|
D|--------------------------------|--------------------------------|
A|--------2-------0-----2---------|--------2-------0-----2-----0-2-| (x8)
E|------------2-------------------|------------2-------------2-----|
                                                                    
[Chorus]                                                            
G|--------------------------------|--------------------------------|
D|--------------------------------|--------------------------------|
A|2---------------2---------------|--------------------------------|
E|--------------------------------|3---------------0-------3-------|
                                                                    
G|--------------------------------|--------------------------------|
D|--------------------------------|--------------------------------|
A|2-------------------------------|------------------------0-------|
E|------------0---0---------------|3-----------3---2---------------|
                                                                    
G|--------------------------------|--------------------------------|
D|--------------------------------|--------------------------------|
A|2---------------2---------------|--------------------------------|
E|--------------------------------|3---------------0-------3-------|
                                                                    
G|--------------------------------|--------------------------------|
D|--------------------------------|--------------------------------|
A|2-------------------------------|------------------------0-------|
E|------------0---0---------------|3-----------3---2---------------|
                                                                    
[Bridge]                                                            
G|--------------------------------|--------------------------------|
D|--------------------------------|--------------------------------|
A|2---------------0---------------|----------------0-----0-2-----0-|
E|------------2-------------------|------------3-------------2-4---|
                                                                    
G|--------------------------------|--------------------------------|
D|--------------------------------|--------------------------------|
A|2-------2-------0-----2---------|--------2-------0-----2-----0-2-| (x2)
E|------------2-------------------|------------2-------------2-----|
                                                                    
G|--------------------------------|--------------------------------|
D|--------------------------------|--------------------------------|
A|2-------2-------0-----2---------|--------2-------0---------------|
E|------------2-------------------|------------2-----------2-------|

[Verse]                                                             
G|--------------------------------|--------------------------------|
D|--------------------------------|--------------------------------|
A|--------2-------0-----2---------|--------2-------0-----2-----0-2-| (x3)
E|------------2-------------------|------------2-------------2-----|
                                                                    
G|--------------------------------|--------------------------------|
D|--------------------------------|--------------------------------|
A|--------2-------0-----2---------|--------2-------0-----2-----0---|
E|------------2-------------------|------------2-------------2---0-|
                                                                    
G|--------------------------------|--------------------------------|
D|--------------------------------|--------------------------------|
A|--------2-------0-----2---------|--------2-------0-----2---------|
E|0-----------2-----------------0-|0-----------2-------------------|
                                                                    
G|--------------------------------|--------------------------------|
D|--------------------------------|--------------------------------|
A|--------2-------0-----2---------|--------2-------0-----2---------|
E|2-----------2-----------------2-|2-----------2-----------------0-|
                                                                    
G|--------------------------------|--------------------------------|
D|--------------------------------|--------------------------------|
A|--------2-------0-----2---------|--------2-------0-----2-----2-0-|
E|0-----------2-----------------0-|0-----------2-------------2-----|
 
                                                                    
G|--------------------------------|--------------------------------|
D|--------------------------------|--------------------------------|
A|--------2-------0-----2---------|--------2-------0-----2-----2-0-|
E|2-----------2-----------------2-|2-----------2-------------2-----|
                                                                    
G|--------------------------------|--------------------------------|
D|--------------------------------|--------------------------------|
A|--------2-------0-----2---------|--------2-------0-----2---------|
E|0-----------2-----------------0-|0-----------2-------------------|
                                                                    
G|--------------------------------|--------------------------------|
D|--------------------------------|--------------------------------|
A|2-------2-------0-----2---------|--------2-------0-----2---------|
E|------------2-------------------|------------2-------------------|
                                                                    
G|--------------------------------|--------------------------------|
D|--------------------------------|--------------------------------|
A|2-------2-------0-----2---------|--------2-------0-----2-----0-2-| (x6)
E|------------2-------------------|------------2-------------2-----| 
                                                                    
[Chorus]                                                            
G|--------------------------------|--------------------------------|
D|--------------------------------|--------------------------------|
A|2-----------2---0---------------|------------------------------2-|
E|------------------------------3-|3---------------0-------3-------|
                                                                    
G|--------------------------------|--------------------------------|
D|--------------------------------|--------------------------------|
A|2-------------------------------|------------------------0-------|
E|------------0---0-------------0-|3-----------3---2---------------|
                                                                    
G|--------------------------------|--------------------------------|
D|--------------------------------|--------------------------------|
A|2-----------2---0---------------|--------------------------------|
E|------------------------------3-|3-----------3---0-------3-----3-|
                                                                    
G|--------------------------------|--------------------------------|
D|--------------------------------|--------------------------------|
A|2-------------------------------|------------------------0-------|
E|------------0---0-----------0-0-|3-----------3---2---------------|
                                                                    
G|--------------------------------|--------------------------------|
D|--------------------------------|--------------------------------|
A|2-------2-------0-----2---------|--------------------------------|
E|------------2-------------------|1-------------------------------|

[Bridge]                                                            
G|--------------------------------|--------------------------------|
D|--------------------------------|0-------3-------1---------------|
A|--------------------------------|--------------------------------|
E|--------------------------------|----------------------1-------1-|
                                                                    
G|--------------------------------|--------------------------------|
D|--------3-------1-----3-------3-|3-------3-------1-----3-----1-3-|
A|------------3-------------------|------------3-------------3-----|
E|1-------------------------------|--------------------------------|
                                                                    
G|--------------------------------|--------------------------------|
D|3-------3-------1-----3-------3-|3-------3-------1-----3-------1-|
A|------------3-------------------|------------3-------------------|
E|--------------------------------|--------------------------------|
                                                                    
G|--------------------------------|--------------------------------|
D|3-------3-------1-----3-------1-|3-------3-------1---1-3-----1---|
A|------------3-------------------|------------3-------------3-----|
E|--------------------------------|--------------------------------|
 
[Chorus]                                                            
G|--------------------------------|--------------------------------|
D|--------------------------------|--------------------------------|
A|2-2---------2---0---------------|------------------------------2-|
E|------------------------------3-|3-----------0---0-------3-------|
                                                                    
G|--------------------------------|--------------------------------|
D|--------------------------------|--------------------------------|
A|2-------------------------------|------------------------0-------|
E|------------0---0-------------0-|3-----------3---2---------------|
                                                                    
G|--------------------------------|--------------------------------|
D|--------------------------------|--------------------------------|
A|2-----------2---0---------------|--------------------------------|
E|------------------------------3-|3-----------3---0-------3-----3-|
                                                                    
G|--------------------------------|--------------------------------|
D|--------------------------------|--------------------------------|
A|2-------------------------------|------------------------0-------|
E|------------0---0-----------0-0-|3-----------3---2---------------|
                                                                    
[Outro]                                                             
G|--------------------------------|--------------------------------|
D|--------------------------------|--------------------------------|
A|--------2-------0-----2---------|--------2-------0-----2-----0-2-| (x3)
E|0-----------2-----------------0-|0-----------2-------------2-----|

            
            
Suggest correction
Creating personal tab
Creating personal tab
You can edit any tab online and save it as your Personal.

You can edit, replace or remove any tab part or add personal notes – all changes will be seen only by you.

Personal tabs can be accessed anytime from any device, even offline.
Learn more »
Give kudos to tab author, rate the tab!
1 2 3 4 5
comments
print report bad tab
guest
You may want to rate the tab now too:
select rating
Wanna post a correction for this tab? Suggest correction