Oops, an error
Loading. Please wait.

Cargo De Nuit tab

556 views 36 this week
no commentswrite comment
1 2 3 4 5
3 more votes to show rating
add to favorites
×
Save as Personal and add changes to this tab that will be seen only by you. Learn more ›
×
You can save this tab as Personal to edit and correct it or add notes. All changes will be seen only by you. Learn more »
launch autoscroll
font size
0
reset
how to read this tab
guitar tuner
edit
Autoscroll
slow
fast
+/-
esc
set tempo
stop
Artist: Axel Bauer 
Song: Cargo De Nuit
Tuning - Standard
Time - 4/4
tabbed by electricbunny

[Intro]                                                             
E|------------5-------5-------7---|4-----4---5-7-------7-------7---|
B|7-----7---8-5-------5-----------|5-----5-----6-------6-------6---|
G|7-----7-----5-------5-----------|4-----4-----6-------6-------6---|
D|7-----7-------------------------|--------------------------------|
A|--------------------------------|--------------------------------|
E|--------------------------------|--------------------------------|

E|--------------9-------9-----109-|12---12-14-12--12------12-------|
B|7-----11--11--10------10----10--|12---12--------12------12-------|
G|6-----11--11--9-------9-----9---|9----------------------9--------|
D|8-----11--11--------------------|--------------------------------|
A|--------------------------------|--------------------------------|
E|--------------------------------|--------------------------------|

E|10-10-10-10-10-12------12-12----|10---10-10-10-10-12------12-12--|
B|10-10-10-10-10-12------12-12----|10---10-10-10-10-12------12-12--|
G|11-11-11-11-11-13------13-13----|11---11-11-11-11-13------13-13--|
D|--------------------------------|--------------------------------|
A|--------------------------------|--------------------------------|
E|--------------------------------|--------------------------------|

E|7-----5-------------------------|--------------------------------|
B|7-----5-------------------------|--------------------------------|
G|8-----6-------------------------|--------------------------------|
D|--------------------------------|--------------------------------|
A|--------------------------------|--------------------------------|
E|--------------------------------|--------------------------------|
 
[Verse]                                                             
E|--------------------------------|--------------------------------|
B|--------------------------------|--------------------------------|
G|--------------------------------|--------------------------------|
D|--------------------------------|--------------------------------| (x9)
A|--------------------------------|--------------------------------|
E|--------------------------------|--------------------------------|
 
[Chorus]                                                            
E|-----------------------14--17-14|----------------------17-14-----|
B|------14-15----14-15-17--17-----|-----14-15----14-15-17-----17-15|
G|----16-------16-----------------|---16-------16------------------|
D|--16-------16-------------------|-16-------16--------------------|
A|--------------------------------|--------------------------------|
E|--------------------------------|--------------------------------| 

E|7-------------------------------|--------------------------------|
B|--------------------------------|--------------------------------|
G|--------------------------------|--------------------------------|
D|--------------------------------|--------------------------------|
A|--------------------------------|--------------------------------|
E|--------------------------------|--------------------------------| 

E|----------------------------19--|----------------------17-14-----|
B|--------------------17-19-17--19|-----14-15----14-15-17-----17-15|
G|--16-18-19--16-18-19------------|---16-------16------------------|
D|16--------16--------------------|-16-------16--------------------|
A|--------------------------------|--------------------------------|
E|--------------------------------|--------------------------------|

E|--------------------------------|--------------------------------|
B|--------------------------------|--------------------------------|
G|4-------------------------------|4-------------------------------|
D|4-------------------------------|4-------------------------------|
A|2-------------------------------|2-------------------------------|
E|--------------------------------|--------------------------------|
 
[Bridge]                                                           
E|------------5-------5-------7---|4-----4---5-7-------7-------7---|
B|7-----7---8---------5-----------|5-----5-----6-------6-------6---|
G|7-----7-------------5-----------|4-----4-----6-------6-------6---|
D|7-----7-------------------------|--------------------------------|
A|--------------------------------|--------------------------------|
E|--------------------------------|--------------------------------|

E|--------------9-------9----10-9-|12---12-14-12--12------12-------|
B|7-----11--11--10------10---10---|12---12--------12------12-------|
G|6-----11--11--9-------9----9----|9----------------------9--------|
D|8-----11--11--------------------|--------------------------------|
A|--------------------------------|--------------------------------|
E|--------------------------------|--------------------------------|

E|10-10-10-10-10-12------12-12----|10---10-10-10-10-12------12-12--|
B|10-10-10-10-10-12------12-12----|10---10-10-10-10-12------12-12--|
G|11-11-11-11-11-13------13-13----|11---11-11-11-11-13------13-13--|
D|--------------------------------|--------------------------------|
A|--------------------------------|--------------------------------|
E|--------------------------------|--------------------------------|

E|7-----5-------------------------|--------------------------------|
B|7-----5-------------------------|--------------------------------|
G|8-----6-------------------------|--------------------------------|
D|--------------------------------|--------------------------------|
A|--------------------------------|--------------------------------|
E|--------------------------------|--------------------------------|
 
[Verse]                                                            
E|--------------------------------|--------------------------------|
B|--------------------------------|--------------------------------|
G|--------------------------------|--------------------------------|
D|--------------------------------|--------------------------------| (x7)
A|--------------------------------|--------------------------------|
E|--------------------------------|--------------------------------|

E|--------------------------------|--------------------------------|
B|--------------------------------|--------------------------------|
G|--------------------------------|----------------------------2---|
D|--------------------------------|--------------------------4-----|
A|--------------------------------|--------------------------------|
E|--------------------------------|--------------------------------|
 
[Solo]                                                             
E|--------------------------------|--------------------------------|
B|0-------------------0-----------|--------------------------------|
G|----------------3-------3-------|0---0---------------------------|
D|--------------------------------|--4---4---------0---------------|
A|--------------------------------|------------------4-2-----------|
E|--------------------------------|--------------------------------|

E|2-3-2-------2-3-2-0-----0-------|--------------------------------|
B|------3-2-3---------3-2---------|------0-2-----------------------|
G|--------------------------------|--0-3---------------------------|
D|------------------------------0-|2-------------------------------|
A|--------------------------------|--------------------------------|
E|--------------------------------|--------------------------------|

E|--------------------------------|--------------------------------|
B|2-----------0---0-----------0-2-|3---------2-3-4-5---------------|
G|--------------3-----------3-----|--------------------------------|
D|--------------------------------|--------------------------------|
A|--------------------------------|--------------------------------|
E|--------------------------------|--------------------------------|

E|-----------12--------------10---|--6-9-6-7-6-----------6---------|
B|--------------------------------|--------------7-----7-----------|
G|12-11-10-11-----12-11-10-11-----|------------9---7-7-------------|
D|--------------------------------|--------------------------------|
A|--------------------------------|--------------------------------|
E|--------------------------------|--------------------------------|

E|------9-10------------7-9-------|----2-4-5-----------------------|
B|----7-----8-7-------11----9-----|--3-------3-2-------------------|
G|--10----------9---9---------7---|--------------4-2-4-------------|
D|------------------------------9-|--------------------2-4---------|
A|--------------------------------|------------------------2-------|
E|--------------------------------|--------------------------------|

E|----------------------1-----2---|----0-----2-----7-----6-----3---|
B|----0-----2-----3---------------|--------------------------------|
G|--------------------------------|--------------4---4-3---3-0-----|
D|--------------0---0-3---3-4---4-|2-----2-4---4-------------------|
A|0-2---2-4---4-------------------|--------------------------------|
E|--------------------------------|--------------------------------|

E|-----------12-14-15-12-14-12--12|11-11-8-------------------------|
B|----------------------------16--|--------12-12-------------------|
G|--------------------------------|--------------------------------|
D|16------------------------------|--------------------------------|
A|--------------------------------|--------------------------------|
E|--------------------------------|--------------------------------|
 
E|--------10--12--13------12--10--|15------------------------------|
B|----14--10--12--13------12--10--|12------------------------------|
G|----13--------------------------|--------------------------------|
D|--------------------------------|--------------------------------|
A|--------------------------------|--------------------------------|
E|--------------------------------|--------------------------------|

[Chorus]                                                            
E|--------------------------------|--------------------------------|
B|--------------------------------|--------------------------------|
G|--------------------------------|--------------------------------|
D|--------------------------------|--------------------------------|
A|--------------------------------|--------------------------------|
E|--------------------------------|--------------------------------| 

E|-----------------------14--17-14|----------------------17-14-----|
B|------14-15----14-15-17--17-----|-----14-15----14-15-17-----17-15|
G|----16-------16-----------------|---16-------16------------------|
D|--16-------16-------------------|-16-------16--------------------|
A|--------------------------------|--------------------------------|
E|--------------------------------|--------------------------------| 

E|7-------------------------------|--------------------------------|
B|--------------------------------|--------------------------------|
G|--------------------------------|--------------------------------|
D|--------------------------------|--------------------------------|
A|--------------------------------|--------------------------------|
E|--------------------------------|--------------------------------| 

E|----------------------------19--|----------------------17-14-----|
B|--------------------17-19-17--19|-----14-15----14-15-17-----17-15|
G|--16-18-19--16-18-19------------|---16-------16------------------|
D|16--------16--------------------|-16-------16--------------------|
A|--------------------------------|--------------------------------|
E|--------------------------------|--------------------------------| 

E|--------------------------------|--------------------------------|
B|--------------------------------|--------------------------------|
G|4-------------------------------|4-------------------------------|
D|4-------------------------------|4-------------------------------|
A|2-------------------------------|2-------------------------------|
E|--------------------------------|--------------------------------|
 
[Bridge]                                                            
E|--------------------------------|--------------------------------|
B|--------------------------------|--------------------------------|
G|--------------------------------|--------------------------------|
D|--------------------------------|--------------------------------| (x4)
A|--------------------------------|--------------------------------|
E|--------------------------------|--------------------------------|
 
[Chorus]                                                           
E|--------------------------------|--------------------------------|
B|--------------------------------|--------------------------------|
G|--------------------------------|--------------------------------|
D|--------------------------------|--------------------------------|
A|--------------------------------|--------------------------------|
E|--------------------------------|--------------------------------| 

E|-----------------------14--17-14|----------------------17-14-----|
B|------14-15----14-15-17--17-----|-----14-15----14-15-17-----17-15|
G|----16-------16-----------------|---16-------16------------------|
D|--16-------16-------------------|-16-------16--------------------|
A|--------------------------------|--------------------------------|
E|--------------------------------|--------------------------------| 

[Outro]                                                            
E|--------------------------------|--------------------------------|
B|--------------------------------|--------------------------------|
G|--------------------------------|--------------------------------|
D|--------------------------------|--------------------------------|
A|--------------------------------|--------------------------------|
E|--------------------------------|--------------------------------|

E|----------------------------19--|----------------------17-14-----|
B|--------------------17-19-17--19|-----14-15----14-15-17-----17-15|
G|--16-18-19--16-18-19------------|---16------16-------------------|
D|16--------16--------------------|-16------16---------------------|
A|--------------------------------|--------------------------------|
E|--------------------------------|--------------------------------|

E|--------------------------------|--------------------------------|
B|--------------------------------|--------------------------------|
G|4-------------------------------|4-------------------------------|
D|4-------------------------------|4-------------------------------|
A|2-------------------------------|2-------------------------------|
E|--------------------------------|--------------------------------|

            
            
Suggest correction
Creating personal tab
Creating personal tab
You can edit any tab online and save it as your Personal.

You can edit, replace or remove any tab part or add personal notes – all changes will be seen only by you.

Personal tabs can be accessed anytime from any device, even offline.
Learn more »
Give kudos to tab author, rate the tab!
1 2 3 4 5
comments
print report bad tab
guest
You may want to rate the tab now too:
select rating
Wanna post a correction for this tab? Suggest correction