Oops, an error
Loading. Please wait.
We have an official God Knows tab made by UG professional guitarists. Check out the tab »
×
36,159 views 18 this week
no commentswrite comment
1 2 3 4 5
x 4
add to favorites
×
Save as Personal and add changes to this tab that will be seen only by you. Learn more ›
×
You can save this tab as Personal to edit and correct it or add notes. All changes will be seen only by you. Learn more »
launch autoscroll
font size
0
reset
guitar tuner
backing track
0:00
0:00
edit
Autoscroll
slow
fast
+/-
esc
set tempo
stop
Intro
  Q=150
 4/4
          Gtr I
  H    Q   Q       E E E E E E E E   E E E E E E E E   E E E E E E E E
|--------------||------------------|-----------------|------------------|
|--------------||o-----------------|-----------------|------------------|
|--------------||o-----------------|-----------------|-------------2-3--|
|---------/x\--||--5-5-5-4-5-5-4-5-|-7-7-7-5-7-7-7-5-|-4-4-4-2-4-4------|


  E E E E E E Q     E E E E E E E E   E E E E E E E E   E E E E E E E E
|-----------------|-----------------|-----------------|------------------|
|-----------------|-----------------|-----------------|---------------6S=|
|-4-4-4-4-4---4\--|-----------------|-----------------|-4-4-4-4-4-4-4----|
|-----------4-----|-5-5-5-4-5-5-4-5-|-7-7-7-7-7-7-5-7-|------------------|


  1.                         2.
   E  E  E E  E  E  E  E       E  E  E  E  E  E  Q     W          +W
|--------------------------||------------------------|----------|--------|
|-11-11-11-9-11-11-11-----o||-11-11-11-11-11-11------|----------|--------|
|---------------------11\-o||-------------------11\--|-4--------|-(4)----|
|--------------------------||------------------------|----------|--------|


  W          +H..       E   W          W
|----------|--------------|----------|------|
|----------|--------------|----------|------|
|----------|--------------|----------|------|
|-7--------|-(7)----------|-5--------|-7----|


                               $
  H..        E   H     H       E E E E E E E E   E E E E E E E E
|--------------|-------------|-----------------|-----------------|
|--------------|-------------|-----------------|-----------------|
|--------------|-6\----------|-4-4-4-4-4-4-4-4-|-4-4-4-4-4-4-4-4-|
|-0---------/4-|-------4\----|-----------------|-----------------|


  E E E E E E E E   E E E E E E E E   E E E E E E E E   E E E E E E E E
|-----------------|-----------------|-----------------|-----------------|
|-----------------|-----------------|-----------------|-----------------|
|-----------------|-----------------|-----------------|-----------------|
|-7-7-7-7-7-7-7-7-|-7-7-7-7-7-7-7-7-|-5-5-5-5-5-5-5-5-|-7-7-7-7-7-7-7-7-|


  E E E E E E E E   E E E E E E E E   E E E E E E E E   E E E E E E E E
|-----------------|-----------------|-----------------|-----------------|
|-----------------|-----------------|-----------------|-----------------|
|-----------------|-----------------|-----------------|-----------------|
|-0-0-0-0-0-0-0-0-|-0-0-0-0-0-0-0-0-|-5-5-5-5-5-5-5-5-|-5-5-5-5-5-5-9-7-|


  E E E E E E E E   E E E E E E E E   E E E E E E E E   E E E E E E E E
|-----------------|-----------------|-----------------|-----------------|
|-----------------|-----------------|-----------------|-----------------|
|-----------------|-----------------|-----------------|-----------------|
|-4-4-4-2-4-4-4-4-|-4-4-4-2-4-4-4-4-|-2-2-2-2-2-2-2-2-|-5-5-5-5-5-5-5-5-|


                          To Coda
  E E E E E E Q     Q   Q.   E.E S     E E E E E E E E   E E E E E E E E
|----------------|-----------------||------------------|-----------------|
|----------------|-----------------||o-----------------|-----------------|
|----------------|-----------------||o-----------------|-----------------|
|-4-4-4-4-4-4-4S=|=16\-------2s4s2-||--5-5-5-5-5-5-5-5-|-7-7-7-7-7-7-7-5-|


                                                       1.
  E E E E E E E E   E E E E E E E E   E E E E E E E E   E E E E E E E E
|-----------------|-----------------|-----------------|-----------------|
|-----------------|-----------------|-----------------|-----------------|
|-------------2-3-|-4-4-4-4-4---4-4-|-----------------|-------------2h3-|
|-4-4-4-4-4-4-----|-----------4-----|-2-2-2-2-2-2-2-2-|-4-4-4-4-4-4-----|


                                      2.
  E E E E E E E E   E E Q  E E E E     E E E E E E E E   E E E E E E E E
|-----------------|-----------------||-----------------|-----------------|
|-----------------|----------------o||-----------------|-----------------|
|-4-4-4-4-4---4-2-|-2---2----------o||-----------------|-----------------|
|-----------4-----|---2----0-0-0-0--||-4-4-4-4-4-4-4-4-|-5-5-5-5-5-5-5-5-|


  E E E E E E E E   E E E E E E E E    E  E  E  E  E  E  Q     E E E E E E E E
|-----------------|-----------------|------------------------|-----------------|
|-----------------|---------------6S|=11-11-11-11-11-11------|-----------------|
|-----------------|-4-4-4-4-4-4-4---|-------------------11\--|-----------------|
|-7-7-7-7-7-7-7-7-|-----------------|------------------------|-5-5-5-4-5-5-4-5-|


  E E E E E E E E   E E E E E E E E   E E E E E E Q     E E E E E E E E
|-----------------|-----------------|-----------------|-----------------|
|-----------------|-----------------|-----------------|-----------------|
|-----------------|-------------2-3-|-4-4-4-4-4---4\--|-----------------|
|-7-7-7-5-7-7-7-5-|-4-4-4-2-4-4-----|-----------4-----|-5-5-5-5-5-5-5-5-|


  E E E E E E E E   E E E E E E E E    E  E  E  E  E  E  Q     E E E E E E E E
|-----------------|-----------------|------------------------|-----------------|
|-----------------|---------------6S|=11-11-11-11-11-11-11\--|-----------------|
|-----------------|-4-4-4-4-4-4-4---|------------------------|-----------4-7---|
|-7-7-7-7-7-7-7-7-|-----------------|------------------------|-5-5-5-5-5-----5-|


  E E E E E Q  E   E E E E E E E E   E E E E E E Q     E E E E E E E E
|----------------|-----------------|-----------------|-----------------|
|----------------|-----------------|-----------------|-----------------|
|-------9-9------|-------------2-3-|-4-4-4-4-4---4\--|-----------------|
|-7-7-7-----7--5-|-4-4-4-4-4-4-----|-----------4-----|-5-5-5-5-5-5-5-5-|


  E E E E E E E E   E E E E E E E E    E  E  E  E  E  E  Q     W
|-----------------|-----------------|------------------------|------|
|-----------------|---------------6S|=11-11-11-11-11-11------|------|
|-----------------|-4-4-4-4-4-4-4---|-------------------11\--|-4----|
|-7-7-7-7-7-7-7-7-|-----------------|------------------------|------|


  +H.      Q    W          +W           W
|-------------|----------|------------|------|
|-------------|----------|------------|------|
|-(4)---------|----------|------------|------|
|----------4S=|=7--------|-(7)--------|-5----|


                                  D.S. &
  W          H.       Q    H     H       E E E S S +E  E E E
|----------|-------------|-------------|----------------------|
|----------|-------------|-------------|----------------------|
|----------|-------------|-6\----------|----------------------|
|-7--------|-0-------/4--|-------4\----|-5-5-5-4-5-(5)-5-4-5--|


  E E E S S +E  E E E   E E E S S +E  E E E
|---------------------|---------------------|
|---------------------|---------------------|
|---------------------|-----------------2-3-|
|-7-7-7-5-7-(7)-7-7-5-|-4-4-4-0-4-(4)-4-----|


  E E E S S +E  E E E   E E E E E E E E
|---------------------|------------------|
|---------------------|------------------|
|-4-4-4---4-(4)---4-2-|------------------|
|-------4-------4-----|-2-2-2-2-2-2-2-2--|


  E E E E E E E E   E E E E E E E E   +E  E E E E E E E   E E E S S +E  E E E
|-----------------|-----------------|-------------------|----------------------|
|-----------------|-----------------|-------------------|----------------------|
|-------------2-3-|-4-4-4-4-4---4-2-|-(2)-2---2---------|---------------4-7----|
|-4-4-4-4-4-4-----|-----------4-----|-------2---0-0-0-0-|-5-5-5-4-5-(5)-----5--|


  E E E S S +E  E E E   E E E S S +E  E E E
|---------------------|---------------------|
|---------------------|---------------------|
|-------9-9-(9)-------|-----------------2-3-|
|-7-7-7---------7-7-5-|-4-4-4-0-4-(4)-4-----|


  E E E S S +E  E E E   E E E E E E E E
|---------------------|------------------|
|---------------------|------------------|
|-4-4-4---4-(4)---4-2-|------------------|
|-------4-------4-----|-2-2-2-2-2-2-2-2--|


  E E E E E E E E   E E E E E E E E   E E E E E E E E   E E E E E E E E
|-----------------|-----------------|-----------------|------------------|
|-----------------|-----------------|-----------------|---------------6S=|
|-----------------|-----------------|-----------------|-4-4-4-4-4-4-4----|
|-4-4-4-4-4-4-4-4-|-5-5-5-5-5-5-5-5-|-7-7-7-7-7-7-7-7-|------------------|


   E  E  E  E  E  E  Q     H..       E   Q  E Q  E Q    H.      Q
|------------------------|-------------|--------------|-------------|
|-11-11-11-11-11-11------|-------------|------7----7--|-6-----------|
|-------------------11\--|-------------|----7----7----|---------6\--|
|------------------------|-5---------0-|-5------------|-------------|


  H.      Q     H.      Q    H.      Q    W
|-------------|------------|------------|------|
|-------------|------------|------------|------|
|-------------|------------|------------|------|
|-4-------4\--|-2-------2S=|=4-------4S=|=9----|


  W          H..        E     q   +H.        W
|----------|------------4--|--6------------|------|
|----------|---------------|---------------|------|
|----------|---------------|---------------|------|
|-7--------|-5---------(5)-|-(5)--(5)------|-4----|


  H    E  E  E  E    Q.   Q.   Q    Q.   H    +E    E E E E E E E E
|------------------|--------------|---------------|-----------------|
|------------------|--------------|------7----(7)-|-----------------|
|-----------11-----|-9\-----------|---------------|-----------------|
|-4----4s11----11\-|------9----2--|-5-------------|-4-4-4-4-4-4-4-4-|


  E E E E E E E E   Q   H    E E   Q   H.        Q  E S S +E  E E E
|-----------------|--------------|-------------|---------------------|
|-----------------|--------------|-------------|---------------------|
|-----------------|--------------|-------------|----------------2----|
|-4-4-4-4-4-4-4-4-|-4\---------4-|-6\----------|-7--7-6-4-(4)-2---2--|


  E E E E E E E E   E E E E E E E E   E E E E E E E E   E E E E E E E E
|-----------------|-----------------|-----------------|-----------------|
|-----------------|-----------------|-----------------|-----------------|
|-------------4-2-|-------------4-5-|-6-6-6-6-6---6-6-|-----------------|
|-9-9-9-7-6-4-----|-6-6-6-6-6-6-----|-----------6-----|-4-4-4-2-4-4-4-4-|


  E E E E E E E E   E E E E E E E E   +E  E Q  E E E E   E E E E E E Q
|-----------------|-----------------|------------------|----------------|
|-----------------|-----------------|------------------|----------------|
|-------------4-5-|-6---6---6---6-4-|-(4)---4----------|-2-2-2-2-2---2--|
|-6-6-6-6-6-6-----|---6---6---6-----|-----4----2-2-2-2-|-----------2----|


  E E E E E E E E   E E E E E E E E   E E E E E E E E   E E E E E E E E
|-----------------|-----------------|-----------------|-----------------|
|-----------------|-----------------|-----------------|-----------------|
|-4-4-4-4-4---4-2-|-------------4-5-|-6-6-6-6-6---6-6-|-----------------|
|-----------4-----|-6-6-6-6-6-6-----|-----------6-----|-4-4-4-4-4-4-4-4-|


  E E E E E E E E   E E E E E E E E   E E E E E E E E   E E E S S +E  E E E
|-----------------|-----------------|-----------------|-----------------------|
|-----------------|-----------------|-----------------|-------------------8S==|
|-----------------|-----------------|-4-4-4-4-4---4-4-|-6-6-6---6-(6)-6-6-----|
|-6-6-6-6-6-6-6-6-|-7-7-7-7-7-7-7-7-|-----------4-----|-------6---------------|


                        Outro
   E  E  E  E  Q   Q      E E E S S +E  E E E
|----------------------|----------------------|
|-13-13-13-13-13\------|-/9-8-----------------|
|------------------6\--|------9-6-6-(6)-------|
|----------------------|----------------6-4-2-|


  E E E S S +E  E E E   E E E E E E E E
|---------------------|-----------------|
|---------------------|-----------------|
|-4-4-4-4-4-(4)---4-2-|-------------4-5-|
|---------------4-----|-6-6-6-6-6-6-----|


  E E E E E E E E   E E E E E E E E   E E E E +E  E E E   E E E E E E E E
|-----------------|-----------------|-------------------|------------------|
|-----------------|-----------------|-------------------|---------------8S=|
|-6-6-6-6-6-6-6-6-|-----4-6---------|-4-4---4-(4)-4-4-4-|-6-6-6-6-6-6-6----|
|-----------------|-7-6-----7-7-7-7-|-----4-------------|------------------|


   E  E  E  E  E  E   Q     E E E E E E E E
|-------------------------|-----------------|
|-13-13-13-13-13----------|-----------------|
|----------------13-------|-------------6---|
|-------------------/11\--|-7-7-7-7-7-7---7-|


  E E E E E E Q     E E E E E E E E
|-----------------|-----------------|
|-----------------|-----------------|
|-4-4-4-4-4---4\--|-------------4-5-|
|-----------4-----|-6-6-6-6-6-6-----|


  E E E S S +E  E E E   E E E E E E E E   E E E E E E E E   E E E E E E E E
|---------------------|-----------------|-----------------|------------------|
|---------------------|-----------------|-----------------|------------------|
|-6-6-6---6-(6)---6-4-|-2-2-2-2-2---2---|-4-4-4-4-4-4-4-4-|-6-6-6-6-6-6-6-6--|
|-------6-------6-----|-----------2---2-|-----------------|------------------|


  W
|----------*|----|
|----------*|----|
|-6--------*|----|
|----------*|----|

            
            
Suggest correction
Creating personal tab
Creating personal tab
You can edit any tab online and save it as your Personal.

You can edit, replace or remove any tab part or add personal notes – all changes will be seen only by you.

Personal tabs can be accessed anytime from any device, even offline.
Learn more »
comments
print report bad tab
guest
Wanna post a correction for this tab? Suggest correction