Oops, an error
Loading. Please wait.

Castle Hall tab

version 1
version 1

Whole song

Interactive

by Ayreon
3,523 views 3 this week
2 commentsread comments
1 2 3 4 5
2 more votes to show rating
add to favorites
×
Save as Personal and add changes to this tab that will be seen only by you. Learn more ›
×
You can save this tab as Personal to edit and correct it or add notes. All changes will be seen only by you. Learn more »
launch autoscroll
font size
0
reset
how to read this tab
guitar tuner
edit
Autoscroll
slow
fast
+/-
esc
set tempo
stop
At last! you enter the Electric Castle!
Here in this vast hall where even shadows fear the Light.
Here you must confront your past.
If you have killed, beware of the Gathering of Spirits For they do fish for men.
Here, the disembodied Astral World becomes flesh once more.
I pitty the Men of swords, For here blood runs cold...

Intro:

Am, C, D, F
Am, C, F, Em
X2
(Acoustic 1st 2nd and 3rd strings only)

A5, C5, D5, F5, A5, C5, F5, E5

[barbarian]
Cries from the grave resound in my ears
They hail from beyond my darkest fears
Faces of the past are etched in my brain
The women I raped, the men I've slain

Shades of the dead are sliding on the wall
Demons dance in the castle hall

A5, C5, D5, F5, A5, C5, F5, E5

[knight]
I call upon the sword, the mighty Excalibur
Grant me the skill to fulfill my quest

I call upon my king and the knights of the table round
Grant me the courage to stand to this test

I call upon the seer, Merlin the sorcerer
Grant me the magic to end my pain

I call upon the spirit that lives in a noble heart
Grant me the passion that's within my veins

Shades of the dead are sliding on the wall
Demons dance in the castle hall

A5, C5, D5, F5, A5, C5, F5, E5


Solo 1st part (you can add 12 to all of the below if your guitar allows it)

e-------------------------------7-10----------------------|
B-----7-----8-10-7---------8-10------10-7-8-7h8h7---8-7---|
G---9---7----------7-9---9------------------------9-----8-|
D---------9-----------------------------------------------|
A---------------------------------------------------------|
E---------------------------------------------------------|

Flute, then guitar.

Solo 2nd Part

e---
B---
G---
D---
A---
E---

Am, C, D, F
Am, C, F, Em
X2
(Acoustic 1st 2nd and 3rd strings only)

A5, C5, D5, F5, A5, C5, F5, E5

[barbarian]					[knight]
Cries from the grave resound in my ears
They hail from beyond my darkest fears
Faces of the past are etched in my brain        I call upon the seer, Merlin the sorcerer
						Grant me the magic to end my pain
The women I raped, the men I've slain		I call upon the spirit that lives in a noble heart
						Grant me the passion that's within my veins

Shades of the dead are sliding on the wall	Shades of the dead are sliding on the wall
Demons dance in the castle hall			Demons dance in the castle hall


A5, C5, D5, F5, A5, C5, F5, E5

Solo 1st part

e-------------------------------7-10----------------------|
B-----7-----8-10-7---------8-10------10-7-8-7h8h7---8-7---|
G---9---7----------7-9---9------------------------9-----8-|
D---------9-----------------------------------------------|
A---------------------------------------------------------|
E---------------------------------------------------------|

e-----------------------------2-5---------------------|
B-----2-----3-5-2---------3-5-----5-2-3-2h3h2---3-2---|
G---4---2---------2-4---4---------------------4-----3-|
D---------4-------------------------------------------|
A-----------------------------------------------------|
E-----------------------------------------------------|

Solo 3rd part

e---
B---
G---
D---
A---
E---

anyway 2nd and 3rd are too much for my hearing..
complete it if u can please :P

- Ranash

            
            
Suggest correction
Creating personal tab
Creating personal tab
You can edit any tab online and save it as your Personal.

You can edit, replace or remove any tab part or add personal notes – all changes will be seen only by you.

Personal tabs can be accessed anytime from any device, even offline.
Learn more »
Give kudos to tab author, rate the tab!
1 2 3 4 5
comments
print report bad tab
2 comments total.
0 reply
Route_99 10 Sep 16, 2017 02:04 PM, edited at 06:04 pm

as per the solo near the end i found the following being accurate to the flute & guitar passages:flute x2:e ------14--------15-17-14--------------15-17-19----22-17------------------------------------B 17------15------------------15-17--------------------------19----20-19h20p19-17-20-19----16G --------------16---------------------------------------------------------------------------guitar x2:e ------09--------10-12-09--------------10-12-14----17-12------------------------------------B 12------10------------------10-12--------------------------14----15-14h15p14-12-15-14----11G --------------11---------------------------------------------------------------------------flute again x2:e ------16--------17-19-16--------------17-19-21----24-19------------------------------------B 19------17------------------17-19--------------------------21----22-21h22p21-19-22-21----18G --------------18---------------------------------------------------------------------------hope it helps

0 reply
Route_99 10 Sep 16, 2017 02:07 PM

sorry to doublepost, text formation broke:

as per the solo near the end i found the following being accurate to the flute & guitar passages:

flute x2:

e ------14--------15-17-14--------------15-17-19----22-17------------------------------------
B 17------15------------------15-17--------------------------19----20-19h20p19-17-20-19----16
G --------------16---------------------------------------------------------------------------

guitar x2:

e ------09--------10-12-09--------------10-12-14----17-12------------------------------------
B 12------10------------------10-12--------------------------14----15-14h15p14-12-15-14----11
G --------------11---------------------------------------------------------------------------

flute again x2:

e ------16--------17-19-16--------------17-19-21----24-19------------------------------------
B 19------17------------------17-19--------------------------21----22-21h22p21-19-22-21----18
G --------------18---------------------------------------------------------------------------

guest
Wanna post a correction for this tab? Suggest correction