Oops, an error
Loading. Please wait.

Planet Y Is Alive intro tab

version 1
version 1

Intro

  • Intro tab, by request. Please rate or comment.

Interactive

by Ayreon
103 views 3 this week
1 commentread comment
1 2 3 4 5
x 3
add to favorites
×
Save as Personal and add changes to this tab that will be seen only by you. Learn more ›
×
You can save this tab as Personal to edit and correct it or add notes. All changes will be seen only by you. Learn more »
launch autoscroll
font size
0
reset
how to read this tab
guitar tuner
edit
Autoscroll
slow
fast
+/-
esc
set tempo
stop
About this tab version
Intro tab, by request. Please rate or comment. Was this info helpful? Yes No
Please note that the riffs in the middle of this song are in Drop C# 
but this tab plays the Intro in standard tuning.


[Intro]

e|-------------------------|---------------------|------------|--------------------|--------------------|
B|-6---5-------------------|-6---8---10~---------|--hold------|-9~------------7----|-8------------------|
G|---------7---------------|---------------------|------------|-----------9--------|--------------------|
D|-------------------------|---------------------|------------|--------------------|--------------------|
A|-------------------------|---------------------|------------|--------------------|--------------------|
E|-------------------------|---------------------|------------|--------------------|--------------------|


  Part 2, after pick scrapes - and doubled one octave higher as well


e|-----------------|----------------|-7~----------7h8p7-|-6~------------------|
B|-------8---7h8p7-|--------7---8---|-------------------|-----------7----9----|
G|-----------------|-9--------------|-------------------|---------------------|
D|---9-------------|----------------|-------------------|---------------------|
A|-----------------|----------------|-------------------|---------------------|
E|-----------------|----------------|-------------------|---------------------|


e|-----------------|------7---9h10p9--------|----------7h8p7-------|------------------------|
B|-10--------------|-8-10-------------10-8--|-7-8-10---------10-7--|-8----------7h8---7h8---|
G|-----------------|------------------------|----------------------|------------------------|
D|-----------------|------------------------|----------------------|------------------------|
A|-----------------|------------------------|----------------------|------------------------|
E|-----------------|------------------------|----------------------|------------------------|


  first ending
e|-----------------|
B|-----------------|
G|-9---------------|  repeat the two lines above, then go to second ending
D|-----------------|
A|-----------------|
E|-----------------|

e|---------7------7-|-8~--8h10p8--7------7--|--------------------------------|
B|-------------10---|----------------10-----|--------------------------------|
G|-9----------------|-----------------------|-9~-----------------------------|
D|------------------|-----------------------|--------------------------------|
A|------------------|-----------------------|--------------------------------|
E|------------------|-----------------------|--------------------------------|


************************************

| x   Dead note
| g   Grace note
| (n) Ghost note
| h   Hammer-on
| p   Pull-off
| r   Release
| >   Accented note
| t   Tapping
| b   Bend
| br  Bend release
| pb  Pre-bend
| pbr Pre-bend release
| /   Slide up
| \   Slide down
| ~   Vibrato
| s   Slap
| P   Pop
| PM  Palm mute
| TR  Trill
| N   Tremolo

************************************

            
            
Suggest correction
Creating personal tab
Creating personal tab
You can edit any tab online and save it as your Personal.

You can edit, replace or remove any tab part or add personal notes – all changes will be seen only by you.

Personal tabs can be accessed anytime from any device, even offline.
Learn more »
Give kudos to tab author, rate the tab!
1 2 3 4 5
comments
print report bad tab
1 comment total.
0 reply
bennettspink1 30 May 30, 2017 06:57 AM

Thanks for this, awesome work!

guest
You may want to rate the tab now too:
select rating
Wanna post a correction for this tab? Suggest correction