Oops, an error
Loading. Please wait.

Magic bass

by B.o.B feat. Rivers Cuomo
5,493 views 1 this week
2 commentsread comments
1 2 3 4 5
x 4
add to favorites
×
Save as Personal and add changes to this tab that will be seen only by you. Learn more ›
×
You can save this tab as Personal to edit and correct it or add notes. All changes will be seen only by you. Learn more »
launch autoscroll
font size
0
reset
guitar tuner
edit
Autoscroll
slow
fast
+/-
esc
set tempo
stop
B.o.B. Feat. Rivers Cuomo - Magic Bass Tab

In here is everything you need to play the above song + Links to a vid of this exact tab 
played


Main Riff of the song

G|-------------------------------|
D|-------------------------------|
A|-------------------------------|
E|-7-7----12-12----4-4----2-2----|


Intro Fill...

G|------------------------------------------------------|
D|------------------------------------------------------|
A|------------------------------------------------------|
E|-7-7----12-12----4-4-4-4-4-4-4-4-2-2-2-2-2-2-2-2------|

Rest of the fills...

G|------------------------------------------------------|
D|-------------------6---6---6---6---4---4---4----------|
A|------------------------------------------------------|
E|-7-7----12-12----4---4---4---4---2---2---2---2--------|

Pretty Easy Song But has an awesome feel to it and is quite a fun one to play

Same tab played here....

http://www.youtube.com/watch?v=p9rOIQ2Ti7c


And can also check it out on my channel with a few other covers...

www.youtube.com/HarryHopkinson

Be grateful if you could subscribe to me and let me know how you guys get on with it =)

Harry

            
            
Suggest correction
Creating personal tab
Creating personal tab
You can edit any tab online and save it as your Personal.

You can edit, replace or remove any tab part or add personal notes – all changes will be seen only by you.

Personal tabs can be accessed anytime from any device, even offline.
Learn more »
comments
print report bad tab
2 comments total.
0 reply
13hurricane 31 Feb 03, 2011 01:02 PM

great but i think the 3rd and 4th in the bass line are easier on A7 than E12. Just my .02$

0 reply
13hurricane 31 Feb 20, 2011 06:50 AM

or G2 and 1st and 2nd notes of the bass line on A2. Less hand sliding that way.

guest
You may want to rate the tab now too:
select rating
Wanna post a correction for this tab? Suggest correction