Oops, an error
Loading. Please wait.

Carry On Up The Morning tab

version 3
version 3

Whole song

Interactive

3,128 views 3 this week
3 commentsread comments
1 2 3 4 5
x 4
add to favorites
×
Save as Personal and add changes to this tab that will be seen only by you. Learn more ›
×
You can save this tab as Personal to edit and correct it or add notes. All changes will be seen only by you. Learn more »
launch autoscroll
font size
0
reset
how to read this tab
guitar tuner
edit
Autoscroll
slow
fast
+/-
esc
set tempo
stop
Difficulty
Tabbed by Krishna (heethmo) whole album coming soon x

1. Carry On Up The Morning

intro Mik
            Bm    ^        G  Em        F#m
e|----------------7---------------7---7-9--9--7--|
b|--7--7--7-------7--------8------7h8---10-10-7--|
G|--9b-9b-9b-9-7--7--------7--7ho9---------------|
D|---------------99--------9--9------------------|
A|---------------9--9-9-10-10-7------------------|
E|---------------7-------------------------------|

    Bm      G      Em   F#m
e|--------------------------------------|
b|--7------------------10p9h10p9h10p9---|
g|------7---9b-9b-9b-9----------------9-|
D|----9---9-----------------------------|
A|--------------------------------------|
E|--------------------------------------|

Drums kick in


C       D		      G
in the morning where does all the pain go
	        F#m
same place the fame goes
               Bm
Straight to your head
            G    Em
oh its not easy
F#              Bm
gettin it out my head
           G  Em    F#m         
it wasn't easy getin out my bed

C       D		      G
Shame on the workman who blames his tools
F#m               Bm
so the same goes so its said
            G   E
The way you tease me
F#m            Bm
tease me out my head
          G
its not easy 
Em       F#m        
forgetting what you've said

B                          G
i know you used to be into me

now youve got it in for me


Pete
    Bm          G   Em       F#m
e|--7-7---------7---7--7-----9--9--9--|
b|--7-7---------8---8--7ho8--10-10-9--|
g|--7-7---------7---9--7ho9--11-11-9--|
D|--9-7ho9------9---9--9-----11-11-9--| x2
A|--9-7ho9-9-10-10--7--7-----9--9--9--|
E|--7-7----7-7------------------------|

Mik
            Bm    ^        G  Em        F#m
e|----------------7---------------7---7-9--9--7--|
b|--7--7--7-------7--------8------7h8---10-10-7--|
G|--9b-9b-9b-9-7--7--------7--7ho9---------------|
D|---------------99--------9--9------------------|
A|---------------9--9-9-10-10-7------------------|
E|---------------7-------------------------------|

    Bm      G      Em   F#m
e|----------------------------9---------|
b|--7------------------10po9---9ho10----|
g|------7---9b-9b-9b-9------11------11--|
D|----9---9---------------------------11|
A|--------------------------------------|
E|--------------------------------------|



C       D		      G
in the morning where does all the pain go
	        F#m
same place the fame goes
               Bm
Straight to your head
            G     Em
It wasn't easy
    F#m
getting you out my head
C             D           G
i've giving up trying to explain
      F#m                   Bm
so i put it in a song instead
          G     Em
it's not easy
F#m              Bm
getting out of bed
             G     Em
and its too easy
  F#m           B
getting out my head 
    G
My head
    B
My head
    G
My head

Break

Pete
    Bm     G     Em     F#m
e|--7--------7---7--7---9--9--9--|
b|--7--------8---8--8---10-10-9--|
g|--7--------7---9--9---11-11-9--|
D|--9--------9---9--9---11-11-9--| x2
A|--9-9-9-10-10--7--7---9--9--9--|
E|--7-7-7-7----------------------|

Mik
            Bm    ^        G  Em        F#m
e|----------------7---------------7---7-9--9--7--|
b|--7--7--7-------7--------8------7h8---10-10-7--|
G|--9b-9b-9b-9-7--7--------7--7ho9---------------|
D|---------------99--------9--9------------------|
A|---------------9--9-9-10-10-7------------------|
E|---------------7-------------------------------|

    Bm      G      Em   F#m
e|----------------------------9---------|
b|--7------------------10po9---9ho10----|
g|------7---9b-9b-9b-9------11----------|
D|----9---9-----------------------------|
A|--------------------------------------|
E|--------------------------------------|



D                
i know where to find
Bm
where to find you my love
G
in the same old place by the river

the only way in is through the window, through the window

Ends

Pete
    Bm          G   Em       F#m
e|--7-7---------7---7--7-----9--9--9--|
b|--7-7---------8---8--7ho8--10-10-9--|
g|--7-7---------7---9--7ho9--11-11-9--|
D|--9-7ho9------9---9--9-----11-11-9--| x2
A|--9-7ho9-9-10-10--7--7-----9--9--9--|
E|--7-7----7-7------------------------|

Mik
            Bm    ^        G  Em        F#m
e|----------------7---------------7---7-9--9--7--|
b|--7--7--7-------7--------8------7h8---10-10-7--|
G|--9b-9b-9b-9-7--7--------7--7ho9---------------|
D|---------------99--------9--9------------------|
A|---------------9--9-9-10-10-7------------------|
E|---------------7-------------------------------|

    Bm      G      Em   F#m
e|----------------------------9---------|
b|--7------------------10po9---9ho10----|
g|------7---9b-9b-9b-9------11------11--|
D|----9---9---------------------------11|
A|--------------------------------------|
E|--------------------------------------|

ends on

Pete
     C   D   G   F#m C   D   G   F#m Bm
e|---8---10--10--9---8---10--10--9---7---|
b|---8---10--12--10--8---10--12--10--7---|
g|---9---11--12--11--9---11--12--11--7---|
D|---10--12--12--11--10--12--12--11--9---|
A|---10--12--10--9---10--12--10--9---9---|
E|---8---10----------8---10----------7---|

            
            
Suggest correction
Creating personal tab
Creating personal tab
You can edit any tab online and save it as your Personal.

You can edit, replace or remove any tab part or add personal notes – all changes will be seen only by you.

Personal tabs can be accessed anytime from any device, even offline.
Learn more »
comments
print report bad tab
3 comments total.
0 reply
Krombacher 30 Feb 07, 2008 03:09 AM

great! can't wait for your complete album tab

-1 reply
warfarenator 31 Feb 12, 2008 03:02 AM

very bad tab!

0 reply
DoHeRTy RoX 10 Mar 12, 2008 03:13 AM

it's not bad !!! actually it's good, well done!

guest
Wanna post a correction for this tab? Suggest correction