Oops, an error
Loading. Please wait.

Fuck Forever tab

version 1
version 1

Interactive

66,270 views 3 this week
10 commentsread comments
1 2 3 4 5
x 9
add to favorites
×
Save as Personal and add changes to this tab that will be seen only by you. Learn more ›
×
You can save this tab as Personal to edit and correct it or add notes. All changes will be seen only by you. Learn more »
launch autoscroll
font size
0
reset
how to read this tab
guitar tuner
backing track
0:00
0:00
edit
Autoscroll
slow
fast
+/-
esc
set tempo
stop
Author
This is a great song that has never really been recorded properly and if Pete doesn't
clean up his act soon it never will. This tab comes from the Zane Lowe Sessions which
is the best of the three versions on the web. Set your amp with high treble and not much
middle and turn the reverb right down to 1 or 2, then smoke some crack. If you want this
version it's usually on limewire but if you can't find it on there just email me at
hot_male_666@hotmail.co.uk.
Thanks, Alex

Intro: strum on A# then on A then some dead strm
Part 2 yeah i kno, wrong wayround)
|e--2-----2-----2-----8---8----8---7-----------------------------|
|B----3-----3-----3/---8----8---8--8-----------------------------|
|G------2-----2---------7----7-----7-----------------------------|
|D---------------------------------------------------------------|
|A---------------------------------------------------------------|
|E---------------------------------------------------------------|


Part 1
|e------------------------------------------------------------------|
|B--3-3---12-12----7-7---10-10--------------------------------------|
|G------------------------------------------------------------------|
|D--0-0----9--9----4-4----7--7--------------------------------------|
|A------------------------------------------------------------------|
|E------------------------------------------------------------------|
Verse: "Whats the difference between death and glory?"
|e----------------------------------------------------------------|
|B--8-8-8-8-7-5-7-8-8-8-8-)---------------------------------------|
|G------------------------)---------------------------------------|
|D------------------------)x2-------------------------------------|
|A--7-7-7-7-7-7-7-7-7-7-7-)---------------------------------------|
|E----------------------------------------------------------------|

|e---------------------------------------------------------------|
|B----------8-8-7-5-7)-------------------------------------------|
|G-------------------)x2-----------------------------------------|
|D--------------------)------------------------------------------|
|A--5-7-5-7-7-7-7-7-7--)-----------------------------------------|
|E---------------------------------------------------------------|


|e----------9----9----9---9-----------------------------------|
|B-8-8-8-8---10---10---10-10----------------------------------|(+a few more strums)
|G-------------9----9-----9-----------------------------------|
|D------------------------------------------------------------|
|A-7-7-7-7----------------------------------------------------|
|E------------------------------------------------------------|

Chorus
"I'm so clever, but I'm not very wise"
Bm----G-----D------F# then part 1 towards end

Next verse is similar to first bit with more out-of-tune bendings.
Solo:

|e---------------------------------5-----------------------------|
|B-3-3-3-2-0-3/7-7-7-7-10-8-7-3-3-----3---13---------------------|
|G---------------------------------------------------------------|
|D---------------------------------------------------------------|
|A---------------------------------------12----------------------|
|E---------------------------------------------------------------|
It's not v. acurate but neither is the Babyshambles guitarist, just play around with 
parts. Libs reunion!!!
bye

| /  slide up
| \  slide down
| h  hammer-on
| p  pull-off
| ~  vibrato
| +  harmonic
| x  Mute note
===============================================================================

            
            
Suggest correction
Creating personal tab
Creating personal tab
You can edit any tab online and save it as your Personal.

You can edit, replace or remove any tab part or add personal notes – all changes will be seen only by you.

Personal tabs can be accessed anytime from any device, even offline.
Learn more »
comments
print report bad tab
10 comments total. Showing first comments.
+1 reply
Lick_Soloist 40 Oct 16, 2005 05:39 AM

Completely Inaccurate, Very poor, Wrong chords, Walden Digs the chords and you have just used individual notes

Extremely poor to be bluntly honest, It should be removed

+2 reply
stuart_cowan90 235 Sep 25, 2006 03:49 AM

Right okay, everythin is wrong there, so I'll be kind and show you how its really done, by people who can play their instrument. . .


Intro Part 1

e|---------------------------x0-------------------x-x-x-x-x-x-x-x?-0--------|
B|---3-3-3-3-3-3-3-3-3-3-3-3-x0-2-2-2-2-2-2-2-2---x-x-x-x-x-x-x-x--0--------|
G|---3-3-3-3-3-3-3-3-3-3-3-3-x0-2-2-2-2-2-2-2-2---x-x-x-x-x-x-x-x--0--------|
D|---3-3-3-3-3-3-3-3-3-3-3-3-x0-2-2-2-2-2-2-2-2---x-x-x-x-x-x-x-x--0--------|
A|---1-1-1-1-1-1-1-1-1-1-1-1-x0-0-0-0-0-0-0-0-0---x-x-x-x-x-x-x-x--0--------|
E|---------------------------x0-------------------x-x-x-x-x-x-x-x?-0--------|

Intro Part 2

e|-2-2-x-x-10-10-x-x-5-5-x-x-9--9-------------------------------------------|
B|-3-3-x-x-12-12-x-x-7-7-x-x-10-10------------------------------------------|
G|-4-4-x-x-12-12-x-x-7-7-x-x-11-11---play 3 times---------------------------|
D|-4-4-x-x-12-12-x-x-7-7-x-x-11-11------------------------------------------|
A|--------------------------------------------------------------------------|
E|--------------------------------------------------------------------------|

Intro Part 3

e|----2-2------0-0----2-2-2--2-2--------------------------------------------|
B|----3--3-3---1--1-1-3--3-3-3-3--------------------------------------------|
G|----2---2----0---0--4------4-4---picking is not accurate, improvise-------|
D|----0--------2------4------4-4--------------------------------------------|
A|-------------3------------------------------------------------------------|
E|--------------------------------------------------------------------------|

Verse 1

e|------------------------------------------7-7-7-0-------x-7-5-3-2---------|
B|--8-8-8-x-8-7-5-7/8-8-8-8-x-8-7-5-7-------8-8-8-0-------x--0-0-0-0--------|
G|--x-x-x-x-x-x-x-x-x-x-x-x-x-x-x-x-x-------9-9-9-0-------x-----------------|
D|--7-7-7-x-7-7-7-7-x-7-7-7-x-7-7-7-7-------9-9-9-0-------x-----------------|
A|------------------------------------5/7b~----------5/7b~------------------|
E|--------------------------------------------------------------------------|

e|--------------9--------9~------------------------9---9--------------------|
B|----8-8-8-x-8---8---8?-8~------------------------8---8--------------------|
G|----x-x-x-x-x-----9----9~------------------------9-9-9-9------------------|
D|----7-7-7-x-7-------------------------------------------------------------|
A|--------------------------------------------------------------------------|
E|--------------------------------------------------------------------------|

e|--9---9---9-9-9-9---------------------------------------------------------|
B|--8---8---8-8-8-8---------------------------------------------------------|
G|--9---9---9-9-9-9---------------------------------------------------------|
D|--0---0---0-0-0-0---------------------------------------------------------|
A|------------------x\\\\\\\\\\\\\\\\\\\--fast pick scrape------------------|
E|------------------x\\\\\\\\\\\\\\\\\\\------------------------------------|

Chorus

e|--2-2-0-x-3-3-3-0-x-2-2-0-x-2-2-2-----------------------------------------|
B|--3-3-0-x-3-3-3-0-x-3-3-0-x-2-2-2-----------------------------------------|
G|--4-4-0-x-4-4-4-0-x-2-2-0-x-2-2-2-----------------------------------------|
D|--4-4-0-x-5-5-5-0-x-0-0-0-x-4-4-4?play 3 times----------------------------|
A|----------5-5-5-------------4-4-4-----------------------------------------|
E|----------3-5-5-------------2-2-2-----------------------------------------|

e|-2-2-0-x-3-3--0------------------------------------------------------------|
B|-3-3-0-x-3-3--0------------------------------------------------------------|
G|-4-4-0-x-4-0?-5b^^^^-this is the ?Fuck Forever? bit------------------------|
D|-4-4-0-x-5-0--x------------------------------------------------------------|
A|---------5----0------------------------------------------------------------|
E|---------3-----------------------------------------------------------------|

e|----2----3-3--------------------2--2---------------------------------------|
B|------3--3-3--------------------2---2--------------------------------------|
G|--4------0-0---2-4-4p2p0--------2------------------------------------------|
D|--4-----0---------------4p2p0----------------------------------------------|
A|---------------------------------------------------------------------------|
E|---------------------------------------------------------------------------|

Now play the first line of the verse and then the Intro Part 3 twice

Then play this

e|---------------------------------------------------------------------------|
B|---13-x-13?13-x-13-x-13-x-13-x-13-x-13-------------------------------------|
G|---12-x-12?12-x-12?x-12?x-12?x-12-x-12-------------------------------------|
D|---11-x-11?11-x-11-x-11-x-11-x-11-x-11?------------------------------------|
A|---12-x-12?12-x-12-x-12-x-12-x-12-x-12-------------------------------------|
E|---------------------------------------------------------------------------|

Now the chorus again

Solo

e|----------

+1 reply
stuart_cowan90 235 Sep 25, 2006 03:50 AM

and the rest. . .

Solo

e|---------------------------------------------5~-------------10--9--7-------|
B|---3-3-3-3-3-2-0-2-//-7-7-7-7-10-8-7-\\-3--3----3-3-2-0-2/7---7--7--7------|
G|---------------------------------------------------------------------------|
D|---------------------------------------------------------------------------|
A|---------------------------------------------------------------------------|
E|---------------------------------------------------------------------------|

e|---------------------------------------------------------------------------|
B|---7--10-8-7-3~------------------------------------------------------------|
G|---------------------------------------------------------------------------|
D|---------------------------------------------------------------------------|
A|---------------------------------------------------------------------------|
E|---------------------------------------------------------------------------|


e|---------------------------------------------------------------------------|
B|---13-x-13-x-13-x-13-x-13-x-13-x-13-x-13--13-13-14-14-15-15-16-16----------|
G|---12-x-12-x-12-x-12-x-12-x-12-x-12-x-12--12-12-12-12-12-12-12-12----------|
D|---11-x-11-x-11-x-11-x-11-x-11-x-11-x-11-----------------------------------|
A|---12-x-12-x-12-x-12-x-12-x-12-x-12-x-12-----------------------------------|
E|---------------------------------------------------------------------------|

Then play a final chorus adding in the fill at ?Fuck Forever?

Outro

?Never Play This On The Radio. . .? ?Ah Ah Ah Ah Ahhh!?
e|-----------------------------------------||---2--2--2--2--2-2-2-2----|
B|-----------------------------------------||---2--2--2--2--2-2-2-2----|
G|----7777777777777777--7777777777777777---||---2--2--2--2--2-2-2-2----|
D|----xxxxxxxxxxxxxxxx?xxxxxxxxxxxxxxxx----||---4--4--4--4--4-4-4-4----|
A|----5555555555555555--5555555555555555---||---4--4--4--4--4-4-4-4----|
E|-----------------------------------------||---2--2--2--2--2-2-2-2----|

Finish of by playing Intro Part 3 until the end. . . and that?s yer lot.

guest
You may want to rate the tab now too:
select rating
Wanna post a correction for this tab? Suggest correction