Oops, an error
Loading. Please wait.

Unstookie Titled bass

1,663 views 1 this week
1 commentread comment
1 2 3 4 5
x 3
add to favorites
×
Save as Personal and add changes to this tab that will be seen only by you. Learn more ›
×
You can save this tab as Personal to edit and correct it or add notes. All changes will be seen only by you. Learn more »
launch autoscroll
font size
0
reset
guitar tuner
edit
Autoscroll
slow
fast
+/-
esc
set tempo
stop
-------------------------------------------------------------------------------
			     Unstookie Titled - Babyshambles
-------------------------------------------------------------------------------

Tabbed By : Stuart
e-mail: stuart_cowan90@hotmail.com

Tuning: Standard

Intro:
 
G|--7~-------7~---|
D|--0~-------0~---| [Play sort of randomly for the first two runs of the           
A|---------5------|  guitar riff, then join in on the third time]
E|----------------|

G|--7-7-7-7-6-7-7-/-11-11-11-11-11-11-\-7-7-7-/-16-16-16-16-16-11-11-11-11-|
D|--0-0-0-0-0-0-0----0--0--0--0--0--0---0-0-0----0--0--0--0--0--0--0—-0--0-|
A|-------------------------------------------------------------------------|
E|-------------------------------------------------------------------------|

G|--/-14-14-14-14-\-11-11-11--12-12-12-11~--12-12-12-11~-------------------|
D|-----0--0--0--0----0--0--0---0--0--0--0----0--0--0--0------9-7-----------|
A|-------------------------------------------------------/10-----9-7-5~----|
E|-------------------------------------------------------------------------|

Verse One:
Play twice
G|---------------------------------------------------------------------------------|
D|----------------------------------------------------------------------9-7--------|
A|----0-2--5-2-0-2-5--5-5-5-2-2-/-10-10-10-\-5-5-5-/-9-9-9-9-\-5-5-/-10-----9-7-5~-|
E|--2------------------------------------------------------------------------------|


Chorus:

Play twice
G|--------------------------------------------|
D|--------------------------------------------|
A|--5-----5-----5-5-5-------5/7-7-7-7-7-7-7-7-|
E|-----5-----5--------5-5-5-------------------|

Second time, continue with:
G|--------------------------|
D|--/-14-14-14-14-14-14-14--|
A|--------------------------|
E|--------------------------|

Break:

Play twice
G|----------------------------------------------------------------|
D|----------------------------------------------------------------|
A|--5-2-0-2-5--5-5-5-2-2-/-10-10-10-\-5-5-5-/-9-9-9-9-\-5-5---0-2-|
E|----------------------------------------------------------2-----|

Third Time
G|----------------------------------------------------------------12-12-12-11-|
D|-----------------------------------------------------------------0--0—-0--0-|
A|--5-2-0-2-5--5-5-5-2-2-/-10-10-10-\-5-5-5-/-9-9-9-9-\-5-5-/-10--------------|
E|----------------------------------------------------------------------------|

G|--12-12-12-11~-----------------|
D|---0--0--0—-0~-----9-7---------|
A|----------------10-----9-7-5~--|
E|-------------------------------|

Verse and chorus again, then play:

Play four times
G|-----------------------|
D|-----------------------|
A|------10-7-9-9-9-9-9---|
E|--7-7------------------|



Play twice
Second time pedal on the B note (7th fret)
G|-----------------|
D|-----------------|
A|-----------------|
E|--10~--8~--7~----|

Now play the Break section again.

Outro:

Play twice
G|----------------------------------------|
D|-----9-7-------------9-7----------------|
A|--10-----9-7-9~~--10-----9-7-9~~--------|
E|----------------------------------------|

The next bit I can’t get, I just play the intro part through.

Then
G|---------------------------------------------------------------------------|
D|-----9-7-------------9-7-------------9-7-------------9-7-------------------|
A|--10-----9-7-9~~--10-----9-7-9~~--10-----9-7-9~~--10-----9-7-5~~~~~~~------|
E|---------------------------------------------------------------------------|



And that’s it, sorry about the part in the outro, I just couldn’t get it

Comment/Rate etc, Thank you.



| /  slide up
| \  slide down
| h  hammer-on
| p  pull-off
| ~  vibrato
| +  harmonic
| x  Mute note
===============================================================================


            
            
Suggest correction
Creating personal tab
Creating personal tab
You can edit any tab online and save it as your Personal.

You can edit, replace or remove any tab part or add personal notes – all changes will be seen only by you.

Personal tabs can be accessed anytime from any device, even offline.
Learn more »
Give kudos to tab author, rate the tab!
1 2 3 4 5
comments
print report bad tab
1 comment total.
0 reply
kaz77777 31 May 15, 2008 01:15 PM

Great, I'd give you 5 stars just for the intro part

guest
You may want to rate the tab now too:
select rating
Wanna post a correction for this tab? Suggest correction