Oops, an error
Loading. Please wait.

Colours chords

version 1
version 1

Whole song

Interactive

109 views 1 this week
no commentswrite comment
1 2 3 4 5
3 more votes to show rating
add to favorites
×
Save as Personal and add changes to this tab that will be seen only by you. Learn more ›
×
You can save this tab as Personal to edit and correct it or add notes. All changes will be seen only by you. Learn more »
launch autoscroll
font size
0
reset
transpose
0
reset
display chords
guitar tuner
edit
Autoscroll
slow
fast
+/-
esc
set tempo
stop
Strumming
There is no strumming pattern for this song yet. and get +5 IQ
[Intro] (Each x2)
eb|-------------------|------------------------|
Bb|-5-----------------|-5----------------------|
Gb|----5-----------x2-|----5-------------------| x2
Db|-------7--5--------|-------7--5-------------|
Ab|----------3---7----|----------3-5-7-7-7-7-7-|
Eb|------------3-5----|------------3-5-5-5-5-5-|

[Verse]

Play the chords as follow in the verse:
   A          C     G
eb|-----------------------|
Bb|-----------------------|
Gb|---------------5-------|
Db|-----7---7---5-------5-|
Ab|---7---7---3-------5---|
Eb|-5---------------3-----|

A                      C G
Fell out of heaven A.D 
A                          C G
but it meant nothin' to me 
A                          C             G
you never talked about the birds and the bees 
F     C G
nooo

A                           C G 
I wanna grow up to be young 
A                          C G
I don't wanna be contained 
A                   C      G
I just wanna feel a little loved
F 
good intentions 
C                G       A
always paved the road to hell 


[Chorus]

A                                F
Some things are not just black & white
    A                                             F
somebody's gotta shine in colours and it could be me 
           C        G      A
out of the jungle into remedy 

eb|------------------------|
Bb|-5----------------------|
Gb|----5-------------------| x2
Db|-------7--5-------------|
Ab|----------3-5-7-7-7-7-7-|
Eb|------------3-5-5-5-5-5-|


[Verse]

A                          C G
I came out hungry to be me 
A                         C G
every nothing is for free 
A                         C   G
life is expensive with no salary
F    C G 
yeah 

A                                C G
can't hold a straydog on a leash 
A                               C G
so let your wild blood run free 
A                     C    G
I just learned from a lottery
F 
that good intentions 
C                G       A
always paved the road to hell 


[Chorus]

A                                F
Some things are not just black & white
    A                                             F
somebody's gotta shine in colours and it could be me 
           C        G      A
out of the jungle into remedy 
           C        G      A
out of the jungle into remedy 

eb|--------------------------------------------------|
Bb|--------------------------------------------------|
Gb|--------------------------------------------------|
Db|-----------5-3-2----3-2-----5-3-2----3-2----5-3-2-|
Ab|-7----5----------7------3-5-------7-----3-5-------|
Eb|-5----3----------5--------3-------5-------3-------|

eb|-------------------------------------------------------------|
Bb|-------------------------------------------------------------|
Gb|------------------9-9-9-9-9--9-9-9-9-9--9-9-9-9-9--9-9-9-9-9-|
Db|------------------7-7-7-7-7--7-7-7-7-7--7-7-7-7-7--7-7-7-7-7-|
Ab|-7-7-7-7-7-7-7-7---------------------------------------------|
Eb|-5-5-5-5-5-5-5-5---------------------------------------------|

eb|-------------------------------------------------------------|
Bb|-------------------------------------------------------------|
Gb|------------------9-9-9-9-9--9-9-9-9-9--9-9-9-9-9--9-9-9-9-9-|
Db|------------------7-7-7-7-7--7-7-7-7-7--7-7-7-7-7--7-7-7-7-7-|
Ab|-3-3-3-3-3-3-3-3---------------------------------------------|
Eb|-1-1-1-1-1-1-1-1---------------------------------------------|

eb|----------------------------------|
Bb|----------------------------------|
Gb|-------------------------9--------|
Db|------------------7-9-10---10-9-7-|
Ab|-3-3-3-3-3-3-3-3------------------|
Eb|-1-1-1-1-1-1-1-1------------------|


[Outro]

A                                F
Some things are not just black & white
    A                                             F
somebody's gotta shine in colours and it could be me 
           C        G      A
out of the jungle into remedy 

A                                F
Some things are not just black & white
    A                                             F
somebody's gotta shine in colours and it could be me 
           C        G      A
out of the jungle into remedy 

A                                F
Some things are not just black & white
    A                                             F
somebody's gotta shine in colours and it could be me 
           C        G      A
out of the jungle into remedy 

            
            
Suggest correction
Creating personal tab
Creating personal tab
You can edit any tab online and save it as your Personal.

You can edit, replace or remove any tab part or add personal notes – all changes will be seen only by you.

Personal tabs can be accessed anytime from any device, even offline.
Learn more »
Give kudos to tab author, rate the tab!
1 2 3 4 5
comments
print report bad tab
guest
Wanna post a correction for this tab? Suggest correction