Oops, an error
Loading. Please wait.

Everybody Ready tab

118 views 12 this week
no commentswrite comment
1 2 3 4 5
3 more votes to show rating
add to favorites
×
Save as Personal and add changes to this tab that will be seen only by you. Learn more ›
×
You can save this tab as Personal to edit and correct it or add notes. All changes will be seen only by you. Learn more »
launch autoscroll
font size
0
reset
how to read this tab
guitar tuner
edit
Autoscroll
slow
fast
+/-
esc
set tempo
stop
[Intro]

e|-8~8~--------------------------------|
B|-------------------------------------|
G|------3-5--8-5--3-5-8-5--3-5-8-5-3-5-|
D|------3-5--8-5--3-5-8-5--3-5-8-5-3-5-|
A|------1-3--6-3--1-3-6-3--1-3-6-3-1-3-|
E|-------------------------------------|

Everybody Ready!

e|--------------------------------|
B|--------------------------------|
G|-3-5--8-5--3-5-8-5--3-5-8-5-3-5-|
D|-3-5--8-5--3-5-8-5--3-5-8-5-3-5-|
A|-1-3--6-3--1-3-6-3--1-3-6-3-1-3-|
E|--------------------------------|

Everybody Ready!

e|-------------------------|
B|-------------------------|
G|-8-5--5-5-5-5-5-5-5--8-5-|
D|-8-5--5-5-5-5-5-5-5--8-5-|
A|-6-3--3-3-3-3-3-3-3--6-3-|
E|-------------------------|

e|----------------------------------|
B|----------------------------------|
G|-5-5-5-5-5-3-3-------3-3-5-5--8-5-|
D|-5-5-5-5-5-3-3--6-6--3-3-5-5--8-5-|
A|-3-3-3-3-3-1-1--6-6--1-1-3-3--6-3-| x2
E|----------------4-4---------------|


[Verse]

   Feel the ardenaline is burnin'
e|-------------------------------|
B|-------------------------------|
G|-3-3-3-3-3-3-3-3-3-3-3-5-5-5-5-|
D|-3-3-3-3-3-3-3-3-3-3-3-5-5-5-5-|
A|-1-1-1-1-1-1-1-1-1-1-1-3-3-3-3-|
E|-------------------------------|

   When you taste blood it's just a warning
e|-----------------------------------------|
B|-----------------------------------------|
G|---------------------------------3-3-3-3-|
D|-6-6-6-6-6-6-6-6-6-6-6-6-6-6-6-6-3-3-3-3-|
A|-6-6-6-6-6-6-6-6-6-6-6-6-6-6-6-6-1-1-1-1-|
E|-4-4-4-4-4-4-4-4-4-4-4-4-4-4-4-4---------|

  On your marks, get set, everybody ready!
e|--------------------------------|
B|--------------------------------|
G|-3-5--8-5--3-5-8-5--3-5-8-5-3-5-|
D|-3-5--8-5--3-5-8-5--3-5-8-5-3-5-|
A|-1-3--6-3--1-3-6-3--1-3-6-3-1-3-| x2
E|--------------------------------|

e|----------------------------------|
B|----------------------------------|
G|-5-5-5-5-5-3-3-------3-3-5-5--8-5-|
D|-5-5-5-5-5-3-3--6-6--3-3-5-5--8-5-|
A|-3-3-3-3-3-1-1--6-6--1-1-3-3--6-3-| x2
E|----------------4-4---------------|

   Feel the ardenaline is burnin'...
e|-------------------------------|
B|-------------------------------|
G|-3-3-3-3-3-3-3-3-3-3-3-5-5-5-5-|
D|-3-3-3-3-3-3-3-3-3-3-3-5-5-5-5-|
A|-1-1-1-1-1-1-1-1-1-1-1-3-3-3-3-|
E|-------------------------------|

e|-----------------------------------------|
B|-----------------------------------------|
G|---------------------------------3-3-3-3-|
D|-6-6-6-6-6-6-6-6-6-6-6-6-6-6-6-6-3-3-3-3-|
A|-6-6-6-6-6-6-6-6-6-6-6-6-6-6-6-6-1-1-1-1-|
E|-4-4-4-4-4-4-4-4-4-4-4-4-4-4-4-4---------|


  On your marks, get set, everybody ready!
e|--------------------------------|
B|--------------------------------|
G|-3-5--8-5--3-5-8-5--3-5-8-5-3-5-|
D|-3-5--8-5--3-5-8-5--3-5-8-5-3-5-|
A|-1-3--6-3--1-3-6-3--1-3-6-3-1-3-| x4 
E|--------------------------------|
  (let the C chord ring last time)

e|-----------------|
B|-----------------|
G|-5--5--5-5-5-5-5-|
D|-5--5--5-5-5-5-5-|
A|-3--3--3-3-3-3-3-|
E|-----------------|

 Play this riff during the solo:
e|--------------------------------|
B|--------------------------------|
G|-3-5--8-5--3-5-8-5--3-5-8-5-3-5-|
D|-3-5--8-5--3-5-8-5--3-5-8-5-3-5-|
A|-1-3--6-3--1-3-6-3--1-3-6-3-1-3-| 
E|--------------------------------|


[Solo]

 (Something like this...)
e|------------------------------------------|
B|------------------------------------------|
G|-3\5-5-5-5-5-5-5h8p5--3h5--3h5--3h5--5^^^-|
D|------------------------------------------|
A|------------------------------------------|
E|------------------------------------------|

e|-6\8-8-8-8-8-8--6\8-8-8-|
B|-6\8-8-8-8-8-8--6\8-8-8-|
G|------------------------|
D|------------------------|
A|------------------------| 
E|------------------------|
  Here's some part I can't figure out.

e|---8---10---11---10---8-|
B|-8---8----8----8----8---|
G|------------------------|
D|------------------------|
A|------------------------|
E|------------------------|

e|----------------------------------|
B|----------------------------------|
G|-5-5-5-5-5-3-3-------3-3-5-5--8-5-|
D|-5-5-5-5-5-3-3--6-6--3-3-5-5--8-5-|
A|-3-3-3-3-3-1-1--6-6--1-1-3-3--6-3-| x2
E|----------------4-4---------------|

   Feel the ardenaline is burnin'... 
(Dregen plays some kind of solo during the chours)
e|-------------------------------|
B|-------------------------------|
G|-3-3-3-3-3-3-3-3-3-3-3-5-5-5-5-|
D|-3-3-3-3-3-3-3-3-3-3-3-5-5-5-5-|
A|-1-1-1-1-1-1-1-1-1-1-1-3-3-3-3-|
E|-------------------------------|
   
e|-----------------------------------------|
B|-----------------------------------------|
G|---------------------------------3-3-3-3-|
D|-6-6-6-6-6-6-6-6-6-6-6-6-6-6-6-6-3-3-3-3-|
A|-6-6-6-6-6-6-6-6-6-6-6-6-6-6-6-6-1-1-1-1-|
E|-4-4-4-4-4-4-4-4-4-4-4-4-4-4-4-4---------|

e|----------------------------------|
B|----------------------------------|
G|-5-5-5-5-5-3-3-------3-3-5-5--8-5-|
D|-5-5-5-5-5-3-3--6-6--3-3-5-5--8-5-|
A|-3-3-3-3-3-1-1--6-6--1-1-3-3--6-3-| x4
E|----------------4-4---------------|

This is about it...



************************************

| h  Hammer-on
| p  Pull-off
| \  Slide down
| ~  Vibrato

************************************

            
            
Suggest correction
Creating personal tab
Creating personal tab
You can edit any tab online and save it as your Personal.

You can edit, replace or remove any tab part or add personal notes – all changes will be seen only by you.

Personal tabs can be accessed anytime from any device, even offline.
Learn more »
Give kudos to tab author, rate the tab!
1 2 3 4 5
comments
print report bad tab
guest
Wanna post a correction for this tab? Suggest correction