Oops, an error
Loading. Please wait.

Shining Like The Son chords

25 views 1 this week
no commentswrite comment
1 2 3 4 5
3 more votes to show rating
add to favorites
×
Save as Personal and add changes to this tab that will be seen only by you. Learn more ›
×
You can save this tab as Personal to edit and correct it or add notes. All changes will be seen only by you. Learn more »
launch autoscroll
font size
0
reset
transpose
0
reset
display chords
guitar tuner
edit
Autoscroll
slow
fast
+/-
esc
set tempo
stop
Author
Difficulty
Strumming
There is no strumming pattern for this song yet. and get +5 IQ
Shining Like the Son
Bob Rice   http://www.bobricemusic.com/

{electric distortion with muting}
D                                                      A
          The temple shook the temple filled with smoke................the
C                                                        G
  Angel shouted HOLY!! HOLY!! HOLY!! is the LORD  ... well here
D                                                       A
  I am ... though I was once a man of unclean lips ................... till
C                                                          G
  the Angel showed to me and pressed a coal upon my mouth it started..

{clean/acoustic}
Bm                 G            E                    A
Burning like a flame      Burning like a flame
Bm                 G            E                    A
Burning like a flame      Burning like a flame

And Now

{electric distortion with muting}
D                                         A
  I     am      shining like the son I can not hold my
C                                          G
  tongue since He has set me free ... they tell me that
D                                         A
  I     am      shining like the son ... telling every-
C                                          G
  one     I     see     what      GOD has done for me
        (D Major scale)
e|-----------------------------------------|
B|---8-7---------8-7-------7-------7-------|
G|-7----9-7-9~-------9-7-9--7--7-9--7--7~--|
D|---------------------------9-------9-----|
A|-----------------------------------------|
E|-----------------------------------------|

D                                         A
  How long will you living inbetween
C                                          G
  Four hundred of them ....    only one of me  ... well here I
D                                                  A
 am they called upon their god but no one came no no .. so I
C                                                 G
  poured water on the alter and I  called upon His name ... it started

Bm                 G            E                    A
Burning like a flame      Burning like a flame
Bm                 G            E                    A
Burning like a flame      Burning like a flame

And Now

D                                         A
  I     am      shining like the son I can not hold my
C                                          G
  tongue since He has set me free ... they tell me that
D                                         A
  I     am      shining like the son ... telling every-
C                                          G
  one     I     see     what      GOD has done Now
D                                         A
  I     am      shining like the son I can not hold my
C                                          G
  tongue since He has set me free ... they tell me that
D                                         A
  I     am      shining like the son ... telling every-
C                                          G
  one     I     see     what      GOD has done for me


e|---------------------------------7-10-7---------------|
B|----------------------------7-10--------9-------------|
G|-----7-9-7-6------------7-9---------------9-----------|
D|-7/9---------9-6----7/9-------------------------------|
A|-----------------7------------------------------------|
E|------------------------------------------------------|

e|------10-12-10-9------------12/14-17-14--12/14-17-19~-|
B|-10/12-----------12-9---------------------------------|
G|----------------------9~------------------------------|
D|------------------------------------------------------|
A|------------------------------------------------------|
E|------------------------------------------------------|

e|--19-17----------------------|
B|-------19-17-----------------|
G|-------------19-16-19-16~----|
D|-----------------------------|
A|-----------------------------|
E|-----------------------------|

            
            
Suggest correction
Creating personal tab
Creating personal tab
You can edit any tab online and save it as your Personal.

You can edit, replace or remove any tab part or add personal notes – all changes will be seen only by you.

Personal tabs can be accessed anytime from any device, even offline.
Learn more »
Give kudos to tab author, rate the tab!
1 2 3 4 5
comments
print report bad tab
guest
You may want to rate the tab now too:
select rating
Wanna post a correction for this tab? Suggest correction