Oops, an error
Loading. Please wait.

Cant Get Enough bass

version 2
version 2

Whole song

778 views 15 this week
no commentswrite comment
1 2 3 4 5
2 more votes to show rating
add to favorites
×
Save as Personal and add changes to this tab that will be seen only by you. Learn more ›
×
You can save this tab as Personal to edit and correct it or add notes. All changes will be seen only by you. Learn more »
launch autoscroll
font size
0
reset
guitar tuner
backing track
0:00
0:00
edit
Autoscroll
slow
fast
+/-
esc
set tempo
stop
Author
Difficulty
Can’t Get Enough
First single in 1974 by UK rock band Bad Company reached number 15 in UK.
Bass performance Boz Burrell. Tab by bass50611. Warm welcome to my tab
Not exactly as original but this how I played it with my band many, many
Times. Great rock number and it always went down very well with the crowd
Comments at bass254@btinternet.com 

Intro:
G|----------------|-----------------------------
D|--DRUMMER COUNT-|--------3----3---------------
A|----IN OF 4-----|-3---1-1---1----3---1-1---1--
E|----------------|-----------------------1---1-

Verse:
G|------------------------------------------------------------------
D|---------3----------------3---------------3---------------3-------
A|-3---1-1----0-1-2-3---1-1---0-1-2-3---1-1---0-1-2-3---1-1---0-1-2-
E|------------------------------------------------------------------

Pre-Chorus:
G|----------------------------------------------
D|----------------------------------------------
A|-------------------------------------8---6--6-
E|-3--3--3--3--3--3--3--3--6--6--6--6-----------

Chorus 1:
G|-------------------------------------------------------------
D|-----------1-3--3--3--3-1----------1-3--3--3--3-1----------1-
A|-3--3--3--3--------------3--3--3--3--------------3--3--3--3--
E|-------------------------------------------------------------

G|-------------------------
D|-3--3--3--3---5--------5-
A|----------------3--3-3---
E|-------------------------

Solo 1:
G|--------------
D|--------------
A|-3---1-1---1--
E|--------1---1-

Repeat Verse:

Repeat Pre-Chorus:

Repeat Chorus 1:

Solo 2:
G|------------------------------------------------------------------
D|----------------3--------------------------------3----------------
A|-3--3-3--1--1-1----0-0--1-1--2-2--3--3-3--1--1-1----0-0--1-1--2-2-
E|------------------------------------------------------------------

G|------------------------------------------------------------------
D|----------------3--------------------------------3----------------
A|-3--3-3--1--1-1----0-0--1-1--2-2--3--3-3--1--1-1----0-0--1-1--2-2-
E|------------------------------------------------------------------

G|-------------------------------------------------------------------------
D|----5-5---5-5---5-5---5-5---8-8---8-8-----------------0-0--1-1--2-2--3-3-
A|---------------------------------------8---6-6-----3-3-------------------
E|-3-3---3-3---3-3---3-3---6-6---6-6---------------------------------------

G|--------------------------------------------------------
D|-------------------0-0--1-1--2-2--3-3-------------------
A|-0-0--1-1--2-2--3-3------------------0-0--1-1--2-2--3-3-
E|--------------------------------------------------------

G|---------------------------------------------
D|-0-0--1-1--2-2--3-3---------------5--------5-
A|-------------------0-0--1-1--2-2----3--3-3---
E|---------------------------------------------

Repeat Chorus 1:

Chorus 2:
G|----------------------------------------------------------2-2--3-3--4-4-
D|----0-0--1-1--2-2--3-3------------------0-0--1-1--2-2--3-3--------------
A|-3-3------------------0-0--1-1--2-2--3-3--------------------------------
E|------------------------------------------------------------------------

G|--------------------------------------------------------------------
D|----0-0--1-1--2-2--3-3----------------------------------------------
A|-3-3------------------0-0--1-1--2-2---------------------------------
E|-----------------------------------3-3-3-3-3-3-3-3--3-3-3-3-3-3-3-3-

Solo 3:
G|-------5---------5/7-----------5---------5/7-----------5----------5/7----
D|----5/7--7-5--3-3----7-5----5/7--7-5--3-3----7-5----5/7--7-5---3-3---7-5-
A|-3-3---------------------3-3---------------------3-3---------------------
E|-------------------------------------------------------------------------

G|---------------------------------
D|-5-5-5-5-5-5-5-5-----------------
A|---------------------------------
E|-----------------3-3-3-3-3-3-3-3-

G|------------------------------------------------------------------------
D|----0-0--1-1--2-2--3-3------------------0-0--1-1--2-2--3-3--------------
A|-3-3------------------0-0--1-1--2-2--3-3------------------0-0--1-1--2-2-
E|------------------------------------------------------------------------

G|----------------------2-2--3-3--4-4--------------------------------
D|----0-0--1-1--2-2--3-3-------------5-5-5-5-5-5-5-5--5-5-5-5-5-3-2--
A|-3-3-------------------------------------------------------------5-
E|-------------------------------------------------------------------

Repeat Solo 3;

Outro:
G|-----------------------------
D|--------3----3---------------
A|-3---1-1---1----3---1-1---1--
E|-----------------------1---1-


            
            
Suggest correction
Creating personal tab
Creating personal tab
You can edit any tab online and save it as your Personal.

You can edit, replace or remove any tab part or add personal notes – all changes will be seen only by you.

Personal tabs can be accessed anytime from any device, even offline.
Learn more »
Give kudos to tab author, rate the tab!
1 2 3 4 5
comments
print report bad tab
guest
You may want to rate the tab now too:
select rating
Wanna post a correction for this tab? Suggest correction