Oops, an error
Loading. Please wait.
We have an official Do What You Want tab made by UG professional guitarists. Check out the tab »
×
2,228 views 9 this week
1 commentread comment
1 2 3 4 5
1 last vote to show rating
add to favorites
×
Save as Personal and add changes to this tab that will be seen only by you. Learn more ›
×
You can save this tab as Personal to edit and correct it or add notes. All changes will be seen only by you. Learn more »
launch autoscroll
font size
0
reset
guitar tuner
edit
Autoscroll
slow
fast
+/-
esc
set tempo
stop
artist: bad religion
song: do what you want 
Intro: 
Verse: 
G------------|---------------------| 
D------------|---------------------| 
A-3333-2222--|-------3-3-----5-5---| 
E------------|-7-7-7-----3-3-------| 

Chorus: 
G-----------------|----------|(end Chorus) 
D-----------------|----------| 
A-3333-5555-7777--|-3333-222-| 
E-----------------|----------| 


            
            
Suggest correction
Creating personal tab
Creating personal tab
You can edit any tab online and save it as your Personal.

You can edit, replace or remove any tab part or add personal notes – all changes will be seen only by you.

Personal tabs can be accessed anytime from any device, even offline.
Learn more »
Give kudos to tab author, rate the tab!
1 2 3 4 5
comments
print report bad tab
1 comment total.
0 reply
EggNoggy 337 May 15, 2006 04:27 PM

the 2nd part of the verse is played like this
G|------------------------------------------------------------------|
D|------------------------------------------------------------------|
A|------55--7----55-------------------------------------------------|
E|7-88-3-----88-3---------------------------------------------------|
and so on

guest
Wanna post a correction for this tab? Suggest correction