Oops, an error
Loading. Please wait.
We have an official Generator tab made by UG professional guitarists. Check out the tab »
×
4,839 views 3 this week
no commentswrite comment
1 2 3 4 5
1 last vote to show rating
add to favorites
×
Save as Personal and add changes to this tab that will be seen only by you. Learn more ›
×
You can save this tab as Personal to edit and correct it or add notes. All changes will be seen only by you. Learn more »
launch autoscroll
font size
0
reset
guitar tuner
backing track
0:00
0:00
edit
Autoscroll
slow
fast
+/-
esc
set tempo
stop
ok so after reading the tab that was posted here and finding it to be completely off. i
to learn the song by ear, so any corrections; don't bitch i'm not a professional. but
the exception of the little bridge (the walking bass line right before the chorus) i'm 
positive this is accurate. enjoy:) P.S. i am extremely lazy so i'm simply giving you
notes for the most part you can just figure the rythm yourself.

intro/chorus:
G|----------------------------------------------|
D|----------------------------------------------|
A|----------------------3-3-3-2-0-2-------------|
E|5-5-5-1-1-1-3-3-3-3-3-------------5*-1*-3*-0--|

verse:
G|---------------------------------------------|
D|----------------5-5-5-------5---5------------|
A|----------3-3-3-------3-3-3---3---3----------|
E|5*---1*-----------------------------3*-------|

break down:
G|---------------------------------------------|
D|---------------------------------------------|
A|--------------------5--------------------5---|
E|5-5-5-6h7p6h7-5-5-5--5-5-5-6h7p6h7-5-5-5---3-|

sorry but i don't know the other section of the song yet. as soon as i figure it out
post it. but here is the basic composition of the song:

intro/chorus 1x
verse 2x
break down 1x
unknown part
repeat

listen to the song, you'll get it it's not really all that hard. :)

            
            
Suggest correction
Creating personal tab
Creating personal tab
You can edit any tab online and save it as your Personal.

You can edit, replace or remove any tab part or add personal notes – all changes will be seen only by you.

Personal tabs can be accessed anytime from any device, even offline.
Learn more »
Give kudos to tab author, rate the tab!
1 2 3 4 5
comments
print report bad tab
guest
Wanna post a correction for this tab? Suggest correction